Song name
# A B C D E F G H I J K L M N O P Q R S T U V W X Y Z

Black Flag - Life Of Pain tab

-------------------------------------------------------------------------------
                             Life of Pain - Damaged - 1981- Black Flag
-------------------------------------------------------------------------------
Tabbed by: MattTheArsonist      
E-mail: mattsaari@live.com

Tuning: Standard (EADGBE)

Intro (0:00)
e|----------------------------------------------------------------------|
B|----------------------------------------------------------------------|
G|----------------------------------------------------------------------|
D|------7-----10-----12-----14-----15------14------15------14-----13~---|
A|----6------9-----11-----13-----14------13------14------13-----12------|
E|--5------8-----10-----12-----13------12------13------12-----11--------|x4


Opening Verse (1:03) "Look what you've done…"
e|------------------------------------------------------------------------------------------|
B|------------------------------------------------------------------------------------------|
G|------------------------------------------12-12-12-12-12-12-12-12-------------------------|
D|--5-5-5-5-5-5-5-5--12-12-12-12--7-7-7-7---12-12-12-12-12-12-12-12--12-12-12-12--9-9-9-9---|
A|--5-5-5-5-5-5-5-5--12-12-12-12--7-7-7-7---10-10-10-10-10-10-10-10--12-12-12-12--9-9-9-9---|
E|--3-3-3-3-3-3-3-3--10-10-10-10--5-5-5-5----------------------------10-10-10-10--7-7-7-7---|

e|--------------------------------------------------------------------------------------------------|
B|--------------------------------------------------------------------------------------------------|
G|-12-12-12-12-12-12-12-12--------------------------12-12-12-12-12-12-12-12-------------------------|
D|-12-12-12-12-12-12-12-12---12-12-12-12--7-7-7-7---12-12-12-12-12-12-12-12--12-12-12-12--9-9-9-9---|
A|-10-10-10-10-10-10-10-10---12-12-12-12--7-7-7-7---10-10-10-10-10-10-10-10--12-12-12-12--9-9-9-9---|
E|---------------------------10-10-10-10--5-5-5-5----------------------------10-10-10-10--7-7-7-7---|

e|------------------|
B|------------------|
G|------------------|
D|-9-9-9-9-9-9-9-9--|
A|-9-9-9-9-9-9-9-9--|
E|-7-7-7-7-7-7-7-7--|

Chorus (1:17) "SELF…DE…STRUCT…"

e|---------------------------------------------------------------------------------------------------|
B|---------------------------------------------------------------------------------------------------|
G|---------------------------------------------------------------------------------------------------|
D|6-6-6-6-6-6-6-6--4-4-4-4-4-4-4-4--3-3-3-3-3-3-3-3--2-2-2-2-2-2-2-2--8-8-8-8-8-8-8-8-8-8-8-8-8-8-8-8|
A|6-6-6-6-6-6-6-6--4-4-4-4-4-4-4-4--3-3-3-3-3-3-3-3--2-2-2-2-2-2-2-2--8-8-8-8-8-8-8-8-8-8-8-8-8-8-8-8|
E|4-4-4-4-4-4-4-4--2-2-2-2-2-2-2-2--1-1-1-1-1-1-1-1--0-0-0-0-0-0-0-0--6-6-6-6-6-6-6-6-6-6-6-6-6-6-6-6|

Verse (1:24)
e|-------------------------------------------------------------------------------------------------|
B|-------------------------------------------------------------------------------------------------|
G|-12-12-12-12-12-12-12-12-------------------------12-12-12-12-12-12-12-12-------------------------|
D|-12-12-12-12-12-12-12-12--12-12-12-12--7-7-7-7---12-12-12-12-12-12-12-12--12-12-12-12--9-9-9-9---|
A|-10-10-10-10-10-10-10-10--12-12-12-12--7-7-7-7---10-10-10-10-10-10-10-10--12-12-12-12--9-9-9-9---|
E|--------------------------10-10-10-10--5-5-5-5----------------------------10-10-10-10--7-7-7-7---|

e|--------------------------------------------------------------------------------------------------|
B|--------------------------------------------------------------------------------------------------|
G|-12-12-12-12-12-12-12-12--------------------------12-12-12-12-12-12-12-12-------------------------|
D|-12-12-12-12-12-12-12-12---12-12-12-12--7-7-7-7---12-12-12-12-12-12-12-12--12-12-12-12--9-9-9-9---|
A|-10-10-10-10-10-10-10-10---12-12-12-12--7-7-7-7---10-10-10-10-10-10-10-10--12-12-12-12--9-9-9-9---|
E|---------------------------10-10-10-10--5-5-5-5----------------------------10-10-10-10--7-7-7-7---|

e|------------------|
B|------------------|
G|------------------|
D|-9-9-9-9-9-9-9-9--|
A|-9-9-9-9-9-9-9-9--|
E|-7-7-7-7-7-7-7-7--|


Chorus (1:38)
Verse (1:45)
Chorus (1:59)

Break (2:06)
e|--------------------|
B|--------------------|
G|--------------------|
D|--------------------|
A|--------------------|
E|-0b1~--0b1~--0b1~---|Bend above the nut or use a whammy, whatever sounds good

Outro (2:15)
e|----------------------------------------------------------------------|
B|----------------------------------------------------------------------|
G|----------------------------------------------------------------------|
D|------7-----10-----12-----14-----15------14------15------14-----13~---|
A|----6------9-----11-----13-----14------13------14------13-----12------|
E|--5------8-----10-----12-----13------12------13------12-----11--------|x2

e|------------------------------------|
B|------------------------------------|
G|------------------------------------|
D|--5-5-5-5-5-5-5-5--12-12-12-12--7---|
A|--5-5-5-5-5-5-5-5--12-12-12-12--7---|
E|--3-3-3-3-3-3-3-3--10-10-10-10--5---|

The End
Tap to rate this tab
 
# A B C D E F G H I J K L M N O P Q R S T U V W X Y Z