Song name
# A B C D E F G H I J K L M N O P Q R S T U V W X Y Z

Black Flag - Beat My Head Against The Wall tab

                       Black Flag - Beat my head against the wall

Band - Black Flag
Album - My War
Tabbed by - Slimetabber


standard tuning

inrto
-------------------------|
-------------------------|
--7---5---9--------------|
--7---5---9---8---6------| (2x)
--5---3---7---8---6------|
--------------6---4------|


Verse
--------------------------|
--------------------------|
---------------------7----| 
---7-----5-----3-----7----|   (4x)
---7-----5-----3-----5----|
---5-----3-----1----------|


bridge (0:30)
----------------------------------------------------------|
----------------------------------------------------------|
----------------------------------------------------------|
-----x----------------------------x-----------------------|
-----x--------5---8-7-5--3--------x---------7--10-9-7-5---|
--3--x---3-6-------------------5--x---5-8-----------------|


chorus
-------------------------|
-------------------------|
--7---5---9--------------|
--7---5---9---8---6------| (2x)
--5---3---7---8---6------|
--------------6---4------|


Verse
--------------------------|
--------------------------|
---------------------7----|
---7-----5-----3-----7----|  (4x)
---7-----5-----3-----5----|
---5-----3-----1----------|


bridge (1:06)
----------------------------------------------------------|
----------------------------------------------------------|
----------------------------------------------------------|
-----x----------------------------x-----------------------|
-----x--------5---8-7-5--3--------x---------7--10-9-7-5---|
--3--x---3-6-------------------5--x---5-8-----------------|


chorus
-------------------------|
-------------------------|
--7---5---9--------------|
--7---5---9---8---6------| (2x)
--5---3---7---8---6------|
--------------6---4------|


solo

some improvised stuff on D major


bridge after the solo
-------------------------------------------------------------|
-------------------------------------------------------------|
-------------------------------------------------------------|
-------------------------------------------------------------|
-5-7-9-------------------------5-7-9-------------------------|
--------10-8-5--5-8-10--8-6-3---------10-8-5--5-8-10-10-8--5-|


Verse
--------------------------|
--------------------------|
---------------------7----|
---7-----5-----3-----7----|  (4x)
---7-----5-----3-----5----|
---5-----3-----1----------|

bridge (2:06)
----------------------------------------------------------|
----------------------------------------------------------|
----------------------------------------------------------|
-----x----------------------------x-----------------------|
-----x--------5---8-7-5--3--------x---------7--10-9-7-5---|
--3--x---3-6-------------------5--x---5-8-----------------|

chorus
-------------------------|
-------------------------|
--7---5---9--------------|
--7---5---9---8---6------| (2x)
--5---3---7---8---6------|
--------------6---4------|
Tap to rate this tab
 
# A B C D E F G H I J K L M N O P Q R S T U V W X Y Z