Song name
# A B C D E F G H I J K L M N O P Q R S T U V W X Y Z

Black Flag - Gimmie Gimmie Gimmie tab

-------------------------------------------------------------------------------
			     Gimmie Gimmie Gimmie - Black Flag
-------------------------------------------------------------------------------
Tabbed by:josh


Tuning:standard

just a note, this is the version from "damaged"

(drum intro)

Verse (both guitars)
e|-----------|
B|-----------|
G|-----------|
D|-----------|
A|-8-888-4-6-|
E|-6-666-2-4-|x8

Chorus 1 (both guitars)
e|------------------------------------|
B|------------------------------------|
G|------------------------------------|
D|-8888-------------8888--------------|
A|-6666-8-----6-----6666-8-----6------|
E-------6(x16)4(x12)-----6(x16)4(x12)-|

Play verse again

Chorus 2 (guitar 1)
e|-----------------------------4------|
B|-----------------------------4(x12)-|
G|------------------------------------|
D|-8888-------------8888--------------|
A|-6666-8-----6-----6666-8------------|
E-------6(x16)4(x12)-----6(x16)-------|

Chorus 2 (guitar 2)
e|------------------------------------|
B|------------------------------------|
G|------------------------------------|
D|-8888-------------8888--------------|
A|-6666-8-----6-----6666-8-----6------|
E-------6(x16)4(x12)-----6(x16)4(x12)-|

Play verse again

Play chorus 1 again

(drum intro again)

Play verse again

play chorus 1 again (except play the last chord only once instead of x12)

yea, thats it.
Tap to rate this tab
 
# A B C D E F G H I J K L M N O P Q R S T U V W X Y Z