Song name
# A B C D E F G H I J K L M N O P Q R S T U V W X Y Z

Black Flame - Terrified By Nothing tab

[---------------------------------------------------------------------------------]
[---------------------------------------------------------------------------------]
[---------------------------------------------------------------------------------]
[---------------------------------------------------------------------------------] x2
[--7-7-10-10-5-5------7-7-10-10-5-5-3-3------7-7-10-10-3-3------------------------]
[--7-7-10-10-5-5------7-7-10-10-5-5-3-3------7-7-10-10-3-3------------------------]

[------------------------------------------------------------]
[------------------------------------------------------------]
[------------------------------------------------------------]
[------------------------------------------------------------]
[-12-12-9-9-8-8-6-6-9-9-8-8-6-6-4-4-3-3-4--------------------]
[-12-12-9-9-8-8-6-6-9-9-8-8-6-6-4-4-3-3-4--------------------]

[---------------------------------------------------------------------------------]
[---------------------------------------------------------------------------------]
[---------------------------------------------------------------------------------]
[---------------------------------------------------------------------------------] x3
[-7-7-10-10-5-5-3-3------7-7-10-10-5-5------7-7-10-10-5-5------7-7-10-10-5-5-3-3--]
[-7-7-10-10-5-5-3-3------7-7-10-10-5-5------7-7-10-10-5-5------7-7-10-10-5-5-3-3--]

[----------------------------------------------------------------------------]
[----------------------------------------------------------------------------]
[----------------------------------------------------------------------------]
[-17-17-15-15-14-14-16-16-18-18-12-12-13-13-11-11-14-14-9-9-10-10-8-8-11-11--]
[-17-17-15-15-14-14-16-16-18-18-12-12-13-13-11-11-14-14-9-9-10-10-8-8-11-11--]
[----------------------------------------------------------------------------]

[---------------------------------------------------------------------------------]
[---------------------------------------------------------------------------------]
[---------------------------------------------------------------------------------]
[---------------------------------------------------------------------------------]
[-7-7-10-10-5-5-7-7-10-10-5-5-7-7-10-10-5-5--7-7-10-10-5-5-3-3-7-7-10-10-5-5-3-3--]
[-7-7-10-10-5-5-7-7-10-10-5-5-7-7-10-10-5-5--7-7-10-10-5-5-3-3-7-7-10-10-5-5-3-3--]
Tap to rate this tab
# A B C D E F G H I J K L M N O P Q R S T U V W X Y Z