Song name
# A B C D E F G H I J K L M N O P Q R S T U V W X Y Z

Black Guayaba - Como Quisiera tab

Song: Como Quisiera
Artist: Black:Guayaba
Tuning: Standard
Tabbed by: Alex Rivera 
d.c.guitar@homtail.com

Here's a great song by one of my favorite spanish rock bands.


Legend:
< > = Natural Harmonics
 b  = bend
 r  = release
 p  = pull off
 h  = Hammer on


Intro A: 2X
e|---------------------------|
B|------------<7>------------|
G|--<7>--<5>-------<7>-------|
D|----------------------<7>--|
A|---------------------------|
E|---------------------------|

Intro B: 2X
(Em, Em, D, C)

Verse 1
You don't have to play the chords, 
the bass and keyboard take care of the action in this part.

Em
Em        D     C        Em      
Siento el mundo,  no dar vueltas.
     D      C    Em           D     C
Solo tu presencia,  veo como todo cae.
            Em          D      C      A
Y no lo detengo, aunque es muy tarde.
           C   A                C  D
Porque te veo,   y como te siento si ya no estas.

Intro A:
(Em, D, C)
e|---------------------------|
B|------------<7>------------|
G|--<7>--<5>-------<7>-------|
D|----------------------<7>--|
A|---------------------------|
E|---------------------------|
Guitar 2:
   Em   D           C
e|--0---2-2h3p2-----0---------|
B|--0---3-------3---1---------|
G|--0---2-----------0---------|
D|--2---0-----------2---------|
A|--2---------------3---------|
E|--0-------------------------|

Verse 2
3x
e|-----------------|
B|-----------------|
G|--9--7--5--------|
D|--9--7--5--------|
A|-----------------|
E|-----------------|
*For the first part if you don't have a delay pedal, 
you can finger pick each chord to the tempo of the delay
and it sounds just as good. But you can also play the 
regular chords if you want.

2x
e|-----------------|
B|-----------------|
G|--2--5--2--5--7--|
D|--2--5--2--5--7--|
A|-----------------|
E|-----------------|
*For the second part just strum the chords

Em
Em         D  C               Em              D        C     Em
Como explicar   la vida que llevo, Sintiendo que eres mía.
                  D  C            A
Y vuelve la fantasía,  que algún día volverás.
      C                        A
Haz caído en cuenta, cuando decidas regresar.
          C            D                Em
Ya nunca mas te volverás a ir sin mi.

           D  C  Em                    D     C   Em
Y como quisiera,    entender porque esto es así.
                D    C             A              C
Que la vida pudiera ser, como un cuento, como un libro.

Solo:
(Em, C, D,
 Em, C, D,
 Em, C, D,
 A, C)

e|----------------------------------------------------------------|
B|-----------------------------5-7-8--7---------------------------|
G|---2b4r0-2b4~~~-----7b9r5-7------------7-------5s7--------------|
D|------------------------------------------7s5--7s9--9h10p9~~~---|
A|----------------------------------------------------------------|
E|----------------------------------------------------------------|

e|------------------------------------------13b15-----------------------------------------------|
B|---15b17r12--15b17--15b17--15b17--15b17----------12--------------------------12-13~~~s15~~~---|
G|-----------------------------------------------------12--14b16r12h14~~~~---14-----------------|
D|----------------------------------------------------------------------------------------------|
A|----------------------------------------------------------------------------------------------|
E|----------------------------------------------------------------------------------------------|

e|-------------------|
B|-------------------|
G|---2b3b2-0---------|
D|-----------2-0-----|
A|---------------2---|
E|-------------------|


Chorus 2 & 3:
Em       D  C  Em                    D     C   Em
Como quisiera,    entender porque esto es así.
                D    C             A              C     Em
Que la vida pudiera ser, como un cuento, como un libro.

         D  C  Em                    D     C   Em
Como quisiera,    entender porque esto es así.
                D    C             A              C
Que la vida pudiera ser, como un cuento, como un libro.

Outro:2x
Em, D, C
Em, D, C,
Em, D, C,
A, C

You can play it like the second verse, by picking the notes.
Tap to rate this tab
# A B C D E F G H I J K L M N O P Q R S T U V W X Y Z