Song name
# A B C D E F G H I J K L M N O P Q R S T U V W X Y Z

Black Gulaman - Sa Isip tab

eto po yung first tab ko..
kaso ngayon lng ako nakaregister eh..
kaya ngayon lng rin nakapost..hehe
hope you enjoy it..
for any comment..
eyerocker11@yahoo.com
ayt?! ^.^


E|----------------------------------------------|
B|----------------------------------------------|
G|----7-7b97-7----------------------------------|
D|-7h9-9----9-9797---99777s555s4----77555s4-----|
A|------------------------------55s7-------55s7-|
E|----------------------------------------------|

E|----------------------------------------------|
B|------------1087-7h87-------------------------|
G|----7-797-7-----7----97----7h97---------------|
D|-7h9-9---9-9-----------9--9----9--------------|
A|----------------------------------------------|
E|----------------------------------------------|
Tap to rate this tab
 
# A B C D E F G H I J K L M N O P Q R S T U V W X Y Z