Song name
# A B C D E F G H I J K L M N O P Q R S T U V W X Y Z

Black Ingvars - Vi Cyklar Runt I Vrlden tab

e|---------------------------------------------------------------------|
B|--6-6--4-4--2-2-2--2-2h4p2--2-4---4-4--2-2--1-1--1-1h2p1--1-2--------|
G|--------------------------5------------------------------3-----------|
D|---------------------------------------------------------------------|
A|---------------------------------------------------------------------|
E|---------------------------------------------------------------------|

e|----------------------------------------------------------------------|
B|--6-6--4-4--2-2--2-2--4-4--6-7--4-6-7-7--7-6-4-6-6--6-4-2-4-6-4-2-1-2-|
G|-------------------------------6--------------------------------------|
D|----------------------------------------------------------------------|
A|----------------------------------------------------------------------|
E|----------------------------------------------------------------------|


Är inte bra på att göra tabs! Här är solo introt iaf.
Tap to rate this tab
 
# A B C D E F G H I J K L M N O P Q R S T U V W X Y Z