Song name
# A B C D E F G H I J K L M N O P Q R S T U V W X Y Z

Black Keys - Leavin Trunk tab

---------------------------------|
----6b--4h6p4--------------------|
---------------5p3---------------|x2
-------------------5-------------|
-3-------------------------------|
---------------------------------|

---------------------------------|
---6*-4h6p4----------------------|
------------5p3------------------|x2 (asterisk means pre bend note and slowly bring it back)
----------------5----------------|
-3-------------------------------|
---------------------------------|

----------------------|--------------------------|------|
----------------------|----------------------6---|------|
---------------3---3--|----------------3---------|-(x2)-|
-----------3h5---5----|------------3h5---5s7-----|------|
-3-3-3-3-3------------|--3-3-3-3-3---------------|------|
----------------------|--------------------------|------|

-----------------------|
-----------------------|
-5-5-5-5-5------3---3--|a bunch o' times
-5-5-5-5-5--3h5---5----|
-3-3-3-3-3-------------|
-----------------------|

-------------------------------------------------|
-------------------------------------------------|
------------------------------------3---3--------|then back to the first one
-3-3-3-3-3-----1---1--3-3-3-3-3-3h5---5----------|
-3-3-3-3-3-1h3---3----3-3-3-3-3------------------|
-1-1-1-1-1------------1-1-1-1-1------------------|

then
---------------------------------------------|
---------------------------------------------|
-------------------------------------3---3---|then back to first again
-5-5-5-5-5-----3---3--3-3-3-3-3--3h5---5-----|
-5-5-5-5-5-3h5---5----3-3-3-3-3--------------|
-3-3-3-3-3------------1-1-1-1-1--------------|

that's the main idea
Tap to rate this tab
 
# A B C D E F G H I J K L M N O P Q R S T U V W X Y Z