Guitaretab - guitar tabs
Song name
# A B C D E F G H I J K L M N O P Q R S T U V W X Y Z

Black Keys - Psychotic Girl tab

-------------------------------------------------------------------------------
	      Psychotic Girl Ė The Black Keys
-------------------------------------------------------------------------------
Tabbed by: Ben Pattyson

I didnít agree with the other tabs of this song so I tried it myself. I am certain the 
progression is perfect. Cheers.

Note: not tabbed banjo.

Chord progression (played throughout song)

   Gm         Bb           A           C
e|-------------------------------------------------|
B|-------------------------------------------------|
G|-------------------------------------------------|
D|-------------------------------------------------|
A|---5-----------8------------7-----------10-------|
E|-3---6-3----s6---10-6----s5---9-5----s8----12-8--|


   Gm         Bb           A           Ab
e|-------------------------------------------------|
B|-------------------------------------------------|
G|-------------------------------------------------|
D|-------------------------------------------------|
A|---5-----------8------------7-----------6--------|
E|-3---6-3----s6---10-6----s5---9-5----s4---8-4----|
[ Tab from: http://www.guitaretab.com/b/black-keys/106216.html ]
Solo (1:56)
                               *
e|--------------------------------------------------------------------|
B|-------------------------------11-----------------------------------|
G|-10b12-------------10-10b12-12----10---------9----------------------|
D|----------------------------------------8s10---12---10s12s10--------|
A|-------------------------------------------------------------13-10--|
E|--------------------------------------------------------------------|
             *
e|----------------------------------------------------|
B|-------------11-------------------------------------|
G|-10-10b12-12----10---------9-9----------------------|
D|----------------------8s10-----12---10s12s10--------|
A|---------------------------------------------13-10--|
E|----------------------------------------------------|
             *
e|----------------------------------------------------------|
B|-------------11-------------------------------------------|
G|-10-10b12-12----10---------9----9-------------------------|
D|----------------------8s10---10---10-12---10s12s10--------|
A|---------------------------------------------------13-10--|
E|----------------------------------------------------------|
             *
e|-------------------------------------------------|
B|-------------11----------------------------------|
G|-10-10b12-12----10--------9----------------------|
D|---------------------8s10---12---10s12s10--------|
A|------------------------------------------13-10--|
E|-------------------------------------------------|

Solo 2 (3:13)
             *
e|------------------------------------------------------|
B|-------------11-----------9----9----------------------|
G|-10-10b12-12----10---8s10---10---12-------------------|
D|--------------------------------------10s12s10--------|
A|-----------------------------------------------13-10--|
E|------------------------------------------------------|
             *
e|------------------------------------------------------|
B|-------------11-----------9----9----------------------|
G|-10-10b12-12----10---8s10---10---12-------------------|
D|---------------------------------------10s12s10s8-----|
A|------------------------------------------------------|
E|------------------------------------------------------|

e|------------------------------------------------------|
B|-----------8s11---------------------------------------|
G|-10b12----------10--------9----9----------------------|
D|---------------------8s10---10---12---10s12s10--------|
A|-----------------------------------------------13-10--|
E|------------------------------------------------------|
             *
e|------------------------------------------------------|
B|-------------11-----------9----9----------------------|
G|-10-10b12-12----10---8s10---10---12-------------------|
D|--------------------------------------10s12s10--------|
A|-----------------------------------------------13-10--|
E|------------------------------------------------------|
                               *     *     *     *
e|------------------------------------------------------|
B|-------------------------11----11----11----11---------|
G|-10b12-------------10b12----12----12----12----12------|
D|------------------------------------------------------|
A|------------------------------------------------------|
E|------------------------------------------------------|

Donít know if this bit is spot on. If someone could work out the rest of the solo it 
be much appreciated but you get the idea.


| *  pick bended note
| s  slide
| b  bend
===============================================================================
Related for Psychotic Girl tab