Song name
# A B C D E F G H I J K L M N O P Q R S T U V W X Y Z

Black Keys - Same Old Thing tab

Hi everyone this is my first tab I have written, however it is very accurate. Have a 
time playing this song and make sure you listen to the song to get the absolute correct timing.

Intro and Verse:
e|-----------------------------------------| x2
B|-----------------------------------------|
G|-----------------------------------------|
D|-----------5-7~--------------------------|
A|---3-5------------------7~--5~--2h3p2h3--|
E|-5-----3-5-------------------------------|

e|-----------------------------------------|
B|-----------------------------------------|
G|------------------4h5-2------------------|
D|-----------5-7~--------------------------|
A|---3-5------------------7~--5~--2h3p2h3--|
E|-5-----3-5-------------------------------|

e|-----------------------------------------| x 5
B|-----------------------------------------|
G|-----------------------------------------|
D|-----------5-7~--------------------------|
A|---3-5------------------7~--5~--2h3p2h3--|
E|-5-----3-5-------------------------------|

Chorus:
e|----------------------------------------------------------------|
B|----------------------------------------------------------------|
G|----------------------------------------------------------------|
D|----------------------------------------------------------5-----|
A|-5---5-3-2-0-----55555-3-2-0-----5---5-3-2-0--------7-5-7---7---|
E|-------------0-3-------------0-3-------------0-3----------------|

Verse:
e|-----------------------------------------| x8 (after fourth time there is
B|-----------------------------------------|     a pause)
G|-----------------------------------------|
D|-----------7-9~--------------------------|
A|---3-5------------------7~--5~--2h3p2h3--|
E|-5-----3-5-------------------------------|

Chorus:
e|----------------------------------------------------------------|
B|----------------------------------------------------------------|
G|----------------------------------------------------------------|
D|----------------------------------------------------------5-----|
A|-5---5-3-2-0-----55555-3-2-0-----5---5-3-2-0--------7-5-7---7---|
E|-------------0-3-------------0-3-------------0-3----------------|

Bridge:
e|--------x--x--------------------------------------| x2
B|--------x--x-------77777-55555--------------------|
G|-66666--x--x--666--77777-55555-666----------------|
D|-77777--x--x--777--77777-55555-777----------------|
A|-77777--x--x--777--55555-33333-777----------------|
E|-55555--x--x--555--------------555----------------|

e|--------------------------------------------------| x2
B|--------4b--------77777-55555---------------------|
G|-66666--4b--------77777-55555-666-----------------|
D|-77777------------77777-55555-777-----------------|
A|-77777------------55555-33333-777-----------------|
E|-55555------------------------555-----------------|

Verse:
e|-----------------------------------------| x2
B|-----------------------------------------|
G|-----------------------------------------|
D|-----------5-7~--------------------------|
A|---3-5------------------7~--5~--2h3p2h3--|
E|-5-----3-5-------------------------------|

e|-----------------------------------------|
B|-----------------------------------------|
G|------------------4h5-2------------------|
D|-----------5-7~--------------------------|
A|---3-5------------------7~--5~--2h3p2h3--|
E|-5-----3-5-------------------------------|

e|-----------------------------------------|
B|-----------------------------------------|
G|-----------------------------------------|
D|-----------5-7~--------------------------|
A|---3-5------------------7~--5~--2h3p2h3--|
E|-5-----3-5-------------------------------|

Outro:
        (let ring)      (cut off)
e|-3--5------------3--5----------------|
B|-3--5------------3--5----------------|
G|-4--6------------4--6----------------|
D|-5--7------------5--7----------------|
A|-5--7------------5--7----------------|
E|-3--5------------3--5----------------|


| h  hammer-on
| p  pull-off
| ~  vibrato
Tap to rate this tab
# A B C D E F G H I J K L M N O P Q R S T U V W X Y Z