Song name
# A B C D E F G H I J K L M N O P Q R S T U V W X Y Z

Black Keys - So He Wont Break tab

Artist: The Black Keys
Song: So He Won't Break
Album: Attack & Release
Tunning: Standard
Tabbed By: Indir Nation

Intro:

e|----------------------------------------------|
B|-----------5--------5--------5--------5-------|
G|--------5--------5--------5--------5----5-----|
D|----/7--------6--------5--------6-------------|
A|----------------------------------------------|
E|----------------------------------------------|

e|-------------------------------7~-------------|
B|-----------5--------5----------7~-------------|
G|--------5--------5--------5----7~-------------|
D|-----7--------6--------5----------------------|
A|----------------------------------------------|
E|----------------------------------------------|


e|----------------------------------------------|
B|-----------5--------5--------5--------5-------|
G|--------5--------5--------5--------5----5-----|
D|----/7--------6--------5--------6-------------|
A|----------------------------------------------|
E|----------------------------------------------|

e|-------------------------------7~-------------|
B|-----------5--------5----------7~-------------|
G|--------5--------5--------5----7~-------------|
D|-----7--------6--------5----------------------|
A|----------------------------------------------|
E|----------------------------------------------|


Verse:

e|------------------10------------------12-12----10-10--------|
B|------------------10------------------12-12----10-10--------|
G|----5-------------10------5-----------12-12----10-10--------| x 4
D|----7--5----------12------7--5--------14-14----12-12--------|
A|---------7---------------------7----------------------------|
E|------------8--5------------------8-------------------------|


Chorus:

e|----------------------------------------------|
B|-----------5--------5--------5--------5-------|
G|--------5--------5--------5--------5----5-----|
D|----/7--------6--------5--------6-------------|
A|----------------------------------------------|
E|----------------------------------------------|

e|-------------------------------7~-------------|
B|-----------5--------5----------7~-------------|
G|--------5--------5--------5----7~-------------|
D|-----7--------6--------5----------------------|
A|----------------------------------------------|
E|----------------------------------------------|

e|----------------------------------------------|
B|-----------5--------5--------5--------5-------|
G|--------5--------5--------5--------5----5-----|
D|-----7--------6--------5--------6-------------|
A|----------------------------------------------|
E|----------------------------------------------|

e|----------------------------------------------|
B|-----------5--------5----------7---5----------|
G|--------5--------5--------5----7---5----------|
D|-----7--------6--------5----------------------|
A|----------------------------------------------|
E|----------------------------------------------|

Verse:

e|------------------10------------------12-12----10-10--------|
B|------------------10------------------12-12----10-10--------|
G|----5-------------10------5-----------12-12----10-10--------| x 4
D|----7--5----------12------7--5--------14-14----12-12--------|
A|---------7---------------------7----------------------------|
E|------------8--5------------------8-------------------------|

Chorus:

e|----------------------------------------------|
B|-----------5--------5--------5--------5-------|
G|--------5--------5--------5--------5----5-----|
D|----/7--------6--------5--------6-------------|
A|----------------------------------------------|
E|----------------------------------------------|

e|-------------------------------7~-------------|
B|-----------5--------5----------7~-------------|
G|--------5--------5--------5----7~-------------|
D|-----7--------6--------5----------------------|
A|----------------------------------------------|
E|----------------------------------------------|

e|----------------------------------------------|
B|-----------5--------5--------5--------5-------|
G|--------5--------5--------5--------5----5-----|
D|-----7--------6--------5--------6-------------|
A|----------------------------------------------|
E|----------------------------------------------|

e|-------------------------------7~-------------|
B|-----------5--------5----------7~-------------|
G|--------5--------5--------5----7~-------------|
D|-----7--------6--------5----------------------|
A|----------------------------------------------|
E|----------------------------------------------|

Solo:

 - I don't have the lead yet
 - This is played underneath the lead

e|------------------10------------------12-12----10-10--------|
B|------------------10------------------12-12----10-10--------|
G|----5-------------10------5-----------12-12----10-10--------| x 4
D|----7--5----------12------7--5--------14-14----12-12--------|
A|---------7---------------------7----------------------------|
E|------------8--5------------------8-------------------------|


Breakdown:

 - two bars just keys

e|------------------10------------------12-12----10-10--------|
B|------------------10------------------12-12----10-10--------|
G|----5-------------10------5-----------12-12----10-10--------| x 2
D|----7--5----------12------7--5--------14-14----12-12--------|
A|---------7---------------------7----------------------------|
E|------------8--5------------------8-------------------------|

Chorus:

e|----------------------------------------------|
B|-----------5--------5--------5--------5-------|
G|--------5--------5--------5--------5----5-----|
D|----/7--------6--------5--------6-------------|
A|----------------------------------------------|
E|----------------------------------------------|

e|-------------------------------7--------------|
B|-----------5--------5----------7--------------|
G|--------5--------5--------5----7--------------|
D|-----7--------6--------5----------------------|
A|----------------------------------------------|
E|----------------------------------------------|

e|----------------------------------------------|
B|-----------5--------5--------5--------5-------|
G|--------5--------5--------5--------5----5-----|
D|-----7--------6--------5--------6-------------|
A|----------------------------------------------|
E|----------------------------------------------|

e|----------------------------------------------|
B|-----------5--------5----------7---5----------|
G|--------5--------5--------5----7---5----------|
D|-----7--------6--------5----------------------|
A|----------------------------------------------|
E|----------------------------------------------|


Outro:

e|------------------10------------------12-12----10-10--------|
B|------------------10------------------12-12----10-10--------|
G|----5-------------10------5-----------12-12----10-10--------| x 3
D|----7--5----------12------7--5--------14-14----12-12--------|
A|---------7---------------------7----------------------------|
E|------------8--5------------------8-------------------------|

e|------------------10------------------12-12----10-10-----5~---|
B|------------------10------------------12-12----10-10-----5~---|
G|----5-------------10------5-----------12-12----10-10-----5~---|
D|----7--5----------12------7--5--------14-14----12-12-----7~---|
A|---------7---------------------7------------------------------|
E|------------8--5------------------8---------------------------|
Tap to rate this tab
 
# A B C D E F G H I J K L M N O P Q R S T U V W X Y Z