Song name
# A B C D E F G H I J K L M N O P Q R S T U V W X Y Z

Black Keys - The Wicked Messenger tab

-------------------------------------------------------------------------------
		     The Wicked Messenger - The Black Keys
-------------------------------------------------------------------------------
Tabbed by:dash
Tuning:standard

e|-------5-5----5-5----5-5-----------5-5----5-5--5-8-5--------------------|
B|-3--5--5-5--5-5-5--5-5-5--5--3--5--5-5--5-5-5---------8-5---------------|
G|-4--6-------6------6------6--4--6-------6-----------------7-5-----------|
D|-5--7-------7------7------7--5--7-------7---------------------7---------|
A|------------------------------------------------------------------------|
E|-3--5-------5------5------5--3--5-------5-------------------------------|

e|-------5----------------------------------5--------------------------------|
B|-3--4----8--5-------------5----------3--5---8-5----------------------------|
G|-4--6---------7-5---5-5h7---7-5------4--6-------7-5------------------------|
D|-5--7-------------7-------------7-5--5--7-----------7-5-5h7----------------|
A|---------------------------------------------------------------------------|
E|-3--5--------------------------------3--5----------------------------------|
Tap to rate this tab
# A B C D E F G H I J K L M N O P Q R S T U V W X Y Z