Guitaretab - guitar tabs
Song name
# A B C D E F G H I J K L M N O P Q R S T U V W X Y Z

Black Keys - Juniors Instrumental tab

This is off Chulahoma.  It sounds right to me, mostly.  I think the last 20 or so 
are pretty sketchy, so any corrections are welcome.  R1 just denotes where to play the main 
and / means slide, etc.  Enjoy.

E --------------------------------------------------------------------------|
B --------------------------------------------------------------------------|
G -------7----(7h9-7/4-4-------------7------------------------------------7-|
D -7-7-5---7-------------7/5-7-5-7/9---9/5------------7-5-7-7-5-7-7-5-7/9---|
A -----------------------------------------7)=(R1) x2-----------------------|
E --------------------------------------------------------------------------|

E --------------------------------------------------------------------------|
B --------------------------------------------------------------------------|
G ---------------------7------------------------5--------------7------------|
D -9p7/5---7-5-7-7-5-7--7-5h7p5---(R1)-7-5-7/9---(R1)-7-5-7/9---9/5---7-5-7|
A -------5-----------------------7-----------------------------------7------|
E --------------------------------------------------------------------------|

E --------------------------------------------------------------------------|
B --------------------------------------------------------------------------|
G ---------------7-----------------------7----------------------7b----------|
D -7-5-7-7-5-7/9---9-75-7-7-5-7-7-5-7/9---9/7p5---(R1)-7-5-7/9----9/5--(R1)|
A -----------------------------------------------7---------------------7----|
E --------------------------------------------------------------------------|
[ Tab from: http://www.guitaretab.com/b/black-keys/116157.html ]
E --------------------------------------------------------------------------|
B --------------------------------------------------------------------------|
G -----------------------9/7/9-------------5/7------------------------------|
D -7-5-7/9/7-7-5-7-7-57-------9/7/5-7-5-7-----9-5h7p5---(R1)-7-5/7/9-(R1)--|
A -----------------------------------------------------7--------------------|
E --------------------------------------------------------------------------|

E --------------------------------------------------------------------------|
B --------------------------------------------------------------------------|
G -----------------7---------------------7----------------------------7-----|
D -7-5-7-9-7-5---5---97-5---5-9-7-5---5---9-7-5---5h7p5-(R1)-7-5-7/9---9/5-|
A -------------7-----------7---------7-----------7--------------------------|
E --------------------------------------------------------------------------|

E --------------------------------------------------------------------------|
B ----------------3h5-8-5-10-8-5h8p5-5--------------------------------------|
G ------------7------------------------7-------------------7---------7------|
D ---(R1)-5/9---9-----------------------9-5h7p5-------5-7---9-7-5-7---9-7-5|
A -7---------------------------------------------7-5h7----------------------|
E --------------------------------------------------------------------------|

E --------------------------------------------------------------------------|
B -----3-3-5-3-0---------------------------------------------------10--10---|
G --------------------------------------7--------------------7------------9-|
D ---5-----------5h7p5----(R1)-7-5-7/9---9/5---(R1)-7-5-7/9---7------------|
A -7-------------------7----------------------7------------------9----------|
E -----------------------0--------------------------------------------------|

E --------------------------------------------------------------------------|
B --------------------------------------------------------------------------|
G -7-------7----------------------------------------------------------------|
D ---9-5h7---9-5h7p5--7-5--------------------------------------------------|
A -----5h7-----------7-----7-7-5--------------------------------------------|
Related for Juniors Instrumental tab