Guitaretab - guitar tabs
Song name
# A B C D E F G H I J K L M N O P Q R S T U V W X Y Z

Black Keys - Your Touch tab

YOUR TOUCH ~ The Black Keys

I haven't figured out the solo, so I just skipped it

INTRO:
e|------------------------------------|------------------------------------|
B|------------------------------------|------------------------------------|
G|------------------------------------|------------------------------------|
D|------------------------------------|------------------------------------|
A|-0------3---5-5-5-5-5--3-5-3--------|-0------3---5-5-5-5-5--3-5-3--------|
E|----3-0---5-------------------------|----3-0---5-------------------------|

VERSE:
   A5                D5 C5              A5                D5 C5  
e|-----------------|------------------|-----------------|------------------|
B|-----------------|------------------|-----------------|------------------|
G|-2---------------|-7--5--5-5-5-5----|-2---------------|-7--5--5-5-5-5----|
D|-2---------------|-7--5--5-5-5-5----|-2---------------|-7--5--5-5-5-5----|
A|-0---------------|-5--3--3-3-3-3----|-0---------------|-5--3--3-3-3-3----|
E|-----------------|------------------|-----------------|------------------|

   A5                D5 C5              A5                D5 C5  
e|-----------------|------------------|-----------------|------------------|
B|-----------------|------------------|-----------------|------------------|
G|-2---------------|-7--5--5-5-5-5----|-2---------------|-7--5--5-5-5-5----|
D|-2---------------|-7--5--5-5-5-5----|-2---------------|-7--5--5-5-5-5----|
A|-0---------------|-5--3--3-3-3-3----|-0---------------|-5--3--3-3-3-3----|
E|-----------------|------------------|-----------------|------------------|

   A5                D5 C5              A5                D5 C5  
e|-----------------|------------------|-----------------|------------------|
B|-----------------|------------------|-----------------|------------------|
G|-2---------------|-7--5--5-5-5-5----|-2---------------|-7--5--5-5-5-5----|
D|-2---------------|-7--5--5-5-5-5----|-2---------------|-7--5--5-5-5-5----|
A|-0---------------|-5--3--3-3-3-3----|-0---------------|-5--3--3-3-3-3----|
E|-----------------|------------------|-----------------|------------------|
    When I want it                        And you got it

   A5                D5 C5              A5                D5 C5  
e|-----------------|------------------|-----------------|------------------|
B|-----------------|------------------|-----------------|------------------|
G|-2---------------|-7--5--5-5-5-5----|-2---------------|-7--5--5-5-5-5----|
D|-2---------------|-7--5--5-5-5-5----|-2---------------|-7--5--5-5-5-5----|
A|-0---------------|-5--3--3-3-3-3----|-0---------------|-5--3--3-3-3-3----|
E|-----------------|------------------|-----------------|------------------|
    So much                              Iím crazy for

CHORUS:
   A5                D5 C5              A5                D5 C5
e|-----------------|------------------|-----------------|------------------|
B|-----------------|------------------|-----------------|------------------|
G|-2---------------|-7--5--5-5-5-5----|-2---------------|-7--5--5-5-5-5----|
D|-2---------------|-7--5--5-5-5-5----|-2---------------|-7--5--5-5-5-5----|
A|-0---------------|-5--3--3-3-3-3----|-0---------------|-5--3--3-3-3-3----|
E|-----------------|------------------|-----------------|------------------|
   Your touch                           Your touch

   A5                D5 C5              A5                D5 C5
e|-----------------|------------------|-----------------|------------------|
B|-----------------|------------------|-----------------|------------------|
G|-2---------------|-7--5--5-5-5-5----|-2---------------|-7--5--5-5-5-5----|
D|-2---------------|-7--5--5-5-5-5----|-2---------------|-7--5--5-5-5-5----|
A|-0---------------|-5--3--3-3-3-3----|-0---------------|-5--3--3-3-3-3----|
E|-----------------|------------------|-----------------|------------------|
   Your touch                           Your touch

VERSE: 
   A5                D5 C5              A5                D5 C5
e|-----------------|------------------|-----------------|------------------|
B|-----------------|------------------|-----------------|------------------|
G|-2---------------|-7--5--5-5-5-5----|-2---------------|-7--5--5-5-5-5----|
D|-2---------------|-7--5--5-5-5-5----|-2---------------|-7--5--5-5-5-5----|
A|-0---------------|-5--3--3-3-3-3----|-0---------------|-5--3--3-3-3-3----|
E|-----------------|------------------|-----------------|------------------|
    Well, Iíll be good                   Like I should

   A5                D5 C5              A5                D5 C5
e|-----------------|------------------|-----------------|------------------|
B|-----------------|------------------|-----------------|------------------|
G|-2---------------|-7--5--5-5-5-5----|-2---------------|-7--5--5-5-5-5----|
D|-2---------------|-7--5--5-5-5-5----|-2---------------|-7--5--5-5-5-5----|
A|-0---------------|-5--3--3-3-3-3----|-0---------------|-5--3--3-3-3-3----|
E|-----------------|------------------|-----------------|------------------|
    Way down inside                      Misery, I need
[ Tab from: http://www.guitaretab.com/b/black-keys/146026.html ]
CHORUS: 
   A5                D5 C5              A5                D5 C5
e|-----------------|------------------|-----------------|------------------|
B|-----------------|------------------|-----------------|------------------|
G|-2---------------|-7--5--5-5-5-5----|-2---------------|-7--5--5-5-5-5----|
D|-2---------------|-7--5--5-5-5-5----|-2---------------|-7--5--5-5-5-5----|
A|-0---------------|-5--3--3-3-3-3----|-0---------------|-5--3--3-3-3-3----|
E|-----------------|------------------|-----------------|------------------|
   Your Touch                           Your touch

   A5                D5 C5              A5                D5 C5
e|-----------------|------------------|-----------------|------------------|
B|-----------------|------------------|-----------------|------------------|
G|-2---------------|-7--5--5-5-5-5----|-2---------------|-7--5--5-5-5-5----|
D|-2---------------|-7--5--5-5-5-5----|-2---------------|-7--5--5-5-5-5----|
A|-0---------------|-5--3--3-3-3-3----|-0---------------|-5--3--3-3-3-3----|
E|-----------------|------------------|-----------------|------------------|
   Your touch                           Your touch

   A5                D5 C5              A5                D5 C5
e|-----------------|------------------|-----------------|------------------|
B|-----------------|------------------|-----------------|------------------|
G|-2---------------|-7--5--5-5-5-5----|-2---------------|-7--5--5-5-5-5----|
D|-2---------------|-7--5--5-5-5-5----|-2---------------|-7--5--5-5-5-5----|
A|-0---------------|-5--3--3-3-3-3----|-0---------------|-5--3--3-3-3-3----|
E|-----------------|------------------|-----------------|------------------|

   A5                D5 C5              A5                D5 C5
e|-----------------|------------------|-----------------|------------------|
B|-----------------|------------------|-----------------|------------------|
G|-2---------------|-7--5--5-5-5-5----|-2---------------|-7--5--5-5-5-5----|
D|-2---------------|-7--5--5-5-5-5----|-2---------------|-7--5--5-5-5-5----|
A|-0---------------|-5--3--3-3-3-3----|-0---------------|-5--3--3-3-3-3----|
E|-----------------|------------------|-----------------|------------------|

BRIDGE:
e|------------------------------------|------------------------------------|
B|------------------------------------|------------------------------------|
G|------------------------------------|------------------------------------|
D|------------------------------------|------------------------------------|
A|-0------3---5-5-5-5-5--3-5-3--------|-0------3---5-5-5-5-5--3-5-3--------|
E|----3-0---5-------------------------|----3-0---5-------------------------|

VERSE: 
   A5                D5 C5              A5                D5 C5 
e|-----------------|------------------|-----------------|------------------|
B|-----------------|------------------|-----------------|------------------|
G|-2---------------|-7--5--5-5-5-5----|-2---------------|-7--5--5-5-5-5----|
D|-2---------------|-7--5--5-5-5-5----|-2---------------|-7--5--5-5-5-5----|
A|-0---------------|-5--3--3-3-3-3----|-0---------------|-5--3--3-3-3-3----|
E|-----------------|------------------|-----------------|------------------|

   A5                D5 C5              A5                D5 C5
e|-----------------|------------------|-----------------|------------------|
B|-----------------|------------------|-----------------|------------------|
G|-2---------------|-7--5--5-5-5-5----|-2---------------|-7--5--5-5-5-5----|
D|-2---------------|-7--5--5-5-5-5----|-2---------------|-7--5--5-5-5-5----|
A|-0---------------|-5--3--3-3-3-3----|-0---------------|-5--3--3-3-3-3----|
E|-----------------|------------------|-----------------|------------------|
    Well, oh Lord, Lord                  I got a sight in eye

   A5                D5 C5              A5                D5 C5
e|-----------------|------------------|-----------------|------------------|
B|-----------------|------------------|-----------------|------------------|
G|-2---------------|-7--5--5-5-5-5----|-2---------------|-7--5--5-5-5-5----|
D|-2---------------|-7--5--5-5-5-5----|-2---------------|-7--5--5-5-5-5----|
A|-0---------------|-5--3--3-3-3-3----|-0---------------|-5--3--3-3-3-3----|
E|-----------------|------------------|-----------------|------------------|
    Please rush                          I need

CHORUS: 
   A5                D5 C5              A5                D5 C5
e|-----------------|------------------|-----------------|------------------|
B|-----------------|------------------|-----------------|------------------|
G|-2---------------|-7--5--5-5-5-5----|-2---------------|-7--5--5-5-5-5----|
D|-2---------------|-7--5--5-5-5-5----|-2---------------|-7--5--5-5-5-5----|
A|-0---------------|-5--3--3-3-3-3----|-0---------------|-5--3--3-3-3-3----|
E|-----------------|------------------|-----------------|------------------|
   Your touch                           Your touch

   A5                D5 C5              A5                D5 C5
e|-----------------|------------------|-----------------|------------------|
B|-----------------|------------------|-----------------|------------------|
G|-2---------------|-7--5--5-5-5-5----|-2---------------|-7--5--5-5-5-5----|
D|-2---------------|-7--5--5-5-5-5----|-2---------------|-7--5--5-5-5-5----|
A|-0---------------|-5--3--3-3-3-3----|-0---------------|-5--3--3-3-3-3----|
E|-----------------|------------------|-----------------|------------------|
   Your touch                           Your touch

   A5
e|-----------------|
B|-----------------|
G|-2---------------|
D|-2---------------|
A|-0---------------|
E|-----------------|
Related for Your Touch tab