Song name
# A B C D E F G H I J K L M N O P Q R S T U V W X Y Z

Black Keys - When The Lights Go Out tab

Help us improve GuitareTab! Take a short survey!
This is an easy fun song. its basically one riff with little variations. EADGBe


Riff 1
e----------------------------------------------------------------------|
B----------------------------------------------------------------------|
G----------------------------------------------------------------------|
D-----------5h7--7b8r7--5----------------------------------------------|
A--5h7--7---0-0--0-0-0--0----------------------------------------------|
E--0-0--0--------------------------------------------------------------|

Variation
e----------------------------------------------------------------------|
B----------------------------------------------------------------------|
G-----------------9-7--------------------------------------------------|
D-----------5h7---0-0--------------------------------------------------|
A--5h7--7---0-0--------------------------------------------------------|
E--0-0--0--------------------------------------------------------------|

Chorus
e----------------------------------------------------------------------|
B----------------------------------------------------------------------|
G----------------------------------------------------------------------|
D---5/7----------------------------------------------------------------|
A---0-0----------------------------------------------------------------|
E----------------------------------------------------------------------|

thats it. its cake but its a great bluesy song.
Related for When The Lights Go Out tab