Song name
# A B C D E F G H I J K L M N O P Q R S T U V W X Y Z

Black Keys - My Mind Is Ramblin tab

My Mind Is Ramblin’, Break 1


E  0---0h2-----0h2----5---0h2----0h2----5---7/9--7---5----2p0----0h2---5—5/7----|
B    --0h2----------------------------------------------------------------------|
G    ---------------------------------------------------------------------------|
D    ---------------------------------------------------------------------------|
A     --0----0-----0-----0-----0-----0-----0-----0-----0-----0-----0-----0------|
E     --------------------------------------------------------------------------|


E     --12---9/5---5h7---5—0h2---5---0h2------------------0---------------------|
B    -----------------------------------------2p0---0h2--------0----------------|
G    -------------------------------------------------------------2------2------|
D    --------------------------------------------------------------4p2----------|
A     --0--------0-------0-------0------0-------0-------0------0------0---0-----|
E     --------------------------------------------------------------------------|

E     --------------------------------------------------------------------------|
B    ------------------------------------------------------------0--------------|
G    -------------------- 2-------2h4---2-------2----------------0--------------|
D    -----------2--------2------------------4------------------- 0--------------|
A     --2--4-------0------------------------------------------------------------|
E     --------------------------------------------------------------------------|

Break 2


E   -----0------0--0h2-----5----7/9---7---9/11/12----12---12/14---14---14/12----|
B   0h2-----2-------------------------------------------------------------------|
G    ---------------------------------------------------------------------------|
D    ---------------------------------------------------------------------------|
A     0--------0----------0----------0----------0----------0----------0---------|
E     --------------------------------------------------------------------------|


E   12/9--9/7----5/7----5---2p0--0h2---5----0h2----5----7/9----7--5--2p0--------|
B    --------------------------------------------------------------------2p0----|
G    ---------------------------------------------------------------------------|
D    ---------------------------------------------------------------------------|
A     --0---------0------------0----------0------------0----------0-------------|
E     --------------------------------------------------------------------------|


E     --------------------------------------------------------------------------|
B    ---------------------------------------------------------------------------|
G    -----2---------------------------------------------------------------------|
D    -----------4p2-------------------------------------------------------------|
A     -0------0-------0---------------------------------------------------------|
E     --------------------------------------------------------------------------|
Tap to rate this tab
 
# A B C D E F G H I J K L M N O P Q R S T U V W X Y Z