Song name
# A B C D E F G H I J K L M N O P Q R S T U V W X Y Z

Black Keys - All You Ever Wanted tab

 C
----0-0---0-0----0-0---0-0-|
----1-1---1-1----1-1---1-1-|
----0-0---0-0----0-0---0-0-|
--------2------------2-----|
--3------------3-----------|
---------------------------|

 C                          F
----0-0---0-0----0-0---0-0----1-1---1-1----1-1---1-1-|
----1-1---1-1----1-1---1-1----1-1---1-1----1-1---1-1-|
----0-0---0-0----0-0---0-0----2-2---2-2----2-2---2-2-|
--------2------------2------3------------3-----------|
--3------------3------------------3------------3-----|
-----------------------------------------------------|

 C
----0-0---0-0----0-0---0-0----0-0---0-0----0-0---0-0-|
----1-1---1-1----1-1---1-1----1-1---1-1----1-1---1-1-|
----0-0---0-0----0-0---0-0----0-0---0-0----0-0---0-0-|
--------2------------2-------------------2-----------|
--3------------3------------3-----3------------3-----|
-----------------------------------------------------|

 F
---1-1---1-1----1-1---1-1---1-1---1-1----1-1---1-1-|
---1-1---1-1----1-1---1-1---1-1---1-1----1-1---1-1-|
---2-2---2-2----2-2---2-2---2-2---2-2----2-2---2-2-|
-3------------3-----------3------------3-----------|
-------3------------3-----------3------------3-----|
---------------------------------------------------|

 C
----0-0---0-0-----------------0-0---0-0--------------|
----1-1---1-1----1~~---1------1-1---1-1----1~~---1---|
----0-0---0-0----0h2-0--------0-0---0-0----0h2-0-----|
--------2----------------2--------2----------------2-|
--3------------3------------3------------3-----------|
-----------------------------------------------------|

 F
---1-1---1-1----1-1---1-1---1-1---1-1----1-1---1-1-|
---1-1---1-1----1-1---1-1---1-1---1-1----1-1---1-1-|
---2-2---2-2----2-2---2-2---2-2---2-2----2-2---2-2-|
-3------------3-----------3------------3-----------|
-------3------------3-----------3------------3-----|
---------------------------------------------------|

 C
----0-0---0-0-----------------0-0---0-0---0-0-0-0-0-|
----1-1---1-1----1~~---1------1-1---1-1---1-1-1-1-1-|
----0-0---0-0----0h2-0--------0-0---0-0---0-0-0-0-0-|
--------2----------------2--------2-----------2-----|
--3------------3------------3-----------3-----------|
----------------------------------------------------|

 G                        F
---3-3---3-3----3-3---3-3---1-1---1-1----1-1---1-1-|
---3-3---3-3----3-3---3-3---1-1---1-1----1-1---1-1-|
---4-4---4-4----4-4---4-4---2-2---2-2----2-2---2-2-|
---5-5---5-5----5-5---5-5---3-3---3-3----3-3---3-3-|
---5-5-5-5-5----5-5-5-5-5---3-3-3-3-3----3-3-3-3-3-|
-3-----3------3-----3-----1-----1------1-----1-----|

 C
---0-0-----------------------0-0---0--------------|
---1-1-----1-----------------1-1---1--------------|
---0-0-0---0---------0h2p0---0-0---0--------------|
-------0h2-2-----0h2-------------2----------------|
-3-----------3-3-----------3---------3~-----------|
--------------------------------------------------|

not sure how to work the ending once the organ comes in...


Ends on C
Tap to rate this tab
# A B C D E F G H I J K L M N O P Q R S T U V W X Y Z