Song name
# A B C D E F G H I J K L M N O P Q R S T U V W X Y Z

Black Keys - The Flame tab

Main riff: (soloing throughout in A)
e----------------------------------------------------------------------------|
b----------------------------------------------------------------------------|
g--0-2-5-2-------------------------------2-5-2-------------------------------|
d----------------------2-5-2-------------------------------2-5-2-------------|
a0---------0-0-0-0-0-0-------------------------0-0-0-0-0-0-------------------|
e----------------------------0-0-0-0-0-0-------------------------0-0-0-0-0-0-|

Chorus:
e--------------------------------10-8-5-------------------------------------|
b-----------------------------10--------5-----------------------------------|
g--7---9---7------7---9---7---------------5-7-5-----2-5-2-------------------|
d--7---9---7------7---9---7---------------------2-5-------0-0-0-0-0-0-------|
a--5---7---5------5---7---5-------------------------------------------------|
e---------------------------------------------------------------------------|
Tap to rate this tab
# A B C D E F G H I J K L M N O P Q R S T U V W X Y Z