Song name
# A B C D E F G H I J K L M N O P Q R S T U V W X Y Z

Black Keys - When The Lights Go Out tab

Standard Tunning
"When the lights go out" main repeating part, from album "Rubber Factory"

e------------------------------------------------------|
B------------------------------------------------------|
G----------2b4-2pb4-4pbr2p0----------------------------|
D--0h2-2-----------------------------------------------|
A------------------------------------------------------|
E------------------------------------------------------| repeat

The weird bending is supposed to mean; bend at 2, hold bend and play bent note, hit bent 
again then release bend then pull off to 0.


some times

e------------------------------------------------------|
B--------------3---------------------/5-3--------------|
G----------2/4---4\2p0-------------2------4------------|
D--0h2-2---------------2-----0h2-2---------------------|
A------------------------------------------------------|
E------------------------------------------------------|
Tap to rate this tab
 
# A B C D E F G H I J K L M N O P Q R S T U V W X Y Z