Song name
# A B C D E F G H I J K L M N O P Q R S T U V W X Y Z

Black Keys - The Lengths tab

The Black Keys - The Lengths

Tabbed by Richard
----------------------------------------------------------------------------

  Intro
e:-------------------------------------------------------------------------|
b:-------------------------------------------------------------------------|
g:--------------------------------------------12-------------12-------12---|
D:-------12---------------12-------12--12h14-----------12h14----12h14----14|
A:-12h14------------12h14----12h14-----------------------------------------|
E:-------------------------------------------------------------------------|

e:-------------------------------------------------------------|-----------|
b:---------------------------------------------------15-15-----|-----------|
g:----------------------------------------12----14/16-----16-14|----12-/12-|
D:-------12------------12-------12--12h14----14----------------|----12-----|
A:-12h14---------12h14----12h14--------------------------------|-----------|
E:----------15-------------------------------------------------|-15--------|
                              The lap steel guitar starts hear ^
e:---------------------------------------------------------------------|---|
b:-----------12----12--12-------------------15p12--------------------12|---|
g:-----12-/12----12--12--------12--------12-------12-------12--12h14---|-14|
D:-----12------------------12--12--12h14-------------------12----------|---|
A:---------------------------------------------------------------------|---|
E:-15--------------------------------------------------15--------------|---|

e:------------------------------------|----|
b:---12--------12--12-15-12-------12--|----|
g:-14--14-12---12-----------12h14-----|----|
D:--------12--------------------------|----|
A:------------------------------------|----|
E:------------------------------------|(15)|

  Verse
e:----------------------------------|
b:------12----12----12---15-12---12-|
g:------12----12----12-12-----12-12-|  Play this three times, then play
D:--------(12)--(14)----------------|  the following.
A:----------------------------------|
E:-(15)-----------------------------|

e:-------------------------------------------------------------------------|
b:------12----12----12---15-12-----12--------12----12----12----------------|
g:------12----12----12-12-----12h14----------12----12----12-----12-12------|
D:--------(12)--(14)---------------------------(12)--(14)-------12-14------|
A:-------------------------------------------------------------------------|
E:-(15)---------------------------------(15)-------------------------------|

e:-------------------------------------------------------------------------|
b:------12----12----12-------12-------------------12----12----12-----------|
g:------12----12----12-12h14-14-14p12-------------12----12----12-12-12--12-|
D:--------(12)--(14)-----------------14p12----------(12)--(14)-------------|
A:-------------------------------------------------------------------------|
E:-(15)--------------------------------------(15)--------------------------|

e:-------------------------------------------------------------------------|
b:-----(12)----12----12-------12-12--------12----------------12--12--------|
g:------12-----12----12-12h14----14--------12-14-14-14-14-14-12--12--------|
D:------12-(12)--(14)----------------12h14-14-12-12-12-12-12-14--10--------|
A:-------------------------------------------------------------------------|
E:-(15)--------------------------------------------------------------------|

e:----------------------------------------------------------------|--------|
b:------12------12-----------------------12------12--15-12--------|--------|
g:------12-12h14----14-12----------------12-12h14---------14-12-12|--------|
D:-----------------------14-12----------------------------------12|------12|
A:----------------------------(14)--------------------------------|-12h14--|
E:-(15)-----------------------------(15)--------------------------|--------|
                              From here you would start the Outro ^

e:---------------------------------------|---------------------------------|
b:--------------------12-----------------|------12----12----12-15-12-12--12|
g:--------------------12---------12------|------12----12----12---------12--|
D:------12-------12h14------12h14---14-12|--------(12)--(14)---------------|
A:-12h14---14-12-------------------------|---------------------------------|
E:---------------------------------------|-(15)----------------------------|

   From here you start at the verse again^ 

This is the song tabbed out until 1:48 but it is basically this same 

structure repeated the whole way through with the exception of a few 

variations on those riffs in between the main verse parts.

  Outro (from 4:29)
e:-------------------------------------------------------------------------|
b:----------------------------------------------------------------------12-|
g:-------------------------------------------12-12-12-------12-12-12---12--|
D:-------12---------------12-------12--12h14-12-14-12-12h14-12-14-12--12---|
A:-12h14------------12h14----12h14-----------------------------------------|
E:-------------------------------------------------------------------------|

The lap steel guitar sounds something like this...
e:---------------------------------------------------------------|---------|
b:-12/15-----------15^17r15-12------12/15------------15^17r15-12-|-12h15p12|
g:---------------------------------------------------------------|---------|
D:---------------------------------------------------------------|---------|
A:---------------------------------------------------------------|---------|
E:---------------------------------------------------------------|---------|

e:----------------------|
b:-12h15p12-------------|
g:-----------14-12------|
D:----------------------|
A:----------------------|
E:----------------------|


Intro
Verse
Verse
Verse
Outro

Lyrics:
Tell me where you're goin or
  What is going wrong
I felt you leavin' before
  You'd even gone
And hold me now
  Or never ever hold me again
No more talk
  Can take me from this pain I'm in
             -
See the moonlight shinning on
  Your window pane
See it leave you as
  Faithful as it came
Please yourself so you
  Don't have to be afraid
Make amends
  Or carry on another way
             -
Tell me what you were thinkin
  To treat somebody so
The care he took the
  Lengths to which he'd go
Coals are hot to walk
  Across without your shoes
But in the end
  Know that you've got nothin to lose

Tap to rate this tab
# A B C D E F G H I J K L M N O P Q R S T U V W X Y Z