Song name
# A B C D E F G H I J K L M N O P Q R S T U V W X Y Z

Black Keys - Strange Desire tab

INTRO:

E|--x---x-x------------------------|--x---x-x------------------------|
B|--x---x-x------------------------|--x---x-x------------------------|
G|--x---x-x------------------------|--x---x-x------------------------|
D|--5---7-7------------------------|--5---7-7------------------------|
A|--5---7-7------------------------|--5---7-7------------------------|
E|--3---5-5------------------------|--3---5-5------------------------|

"Whoah!                             Whoah!"
E|--x---x-x----------x---x-x-------|--x-x-----------x---x-x----------|
B|--x---x-x----------x---x-x-------|--x-x-----------x---x-x----------|
G|--x---x-x----------5---7-7-------|--7-7-----------5---x-x----------| x2 
D|--5---7-7----------5---7-7-------|--7-7-----------5---7-7----------|
A|--5---7-7----------3---5-5-------|--5-5-----------3---7-7----------|
E|--3---5-5----------X---X-X-------|--X-X-----------X---5-5----------|


VERSE:

"I don't wanna go to hell, but if I do... It'll be 'cus of you"
E|-----x-x----------x---x-x--------|--x-x-----------x---x-x----------|
B|-----x-x----------x---x-x--------|--x-x-----------x---x-x----------|
G|-----x-x----------5---7-7--------|--7-7-----------5---x-x----------|
D|-----7-7----------5---7-7--------|--7-7-----------5---7-7----------|
A|-----7-7----------3---5-5--------|--5-5-----------3---7-7----------|
E|-----5-5----------X---X-X--------|--X-X-----------X---5-5----------|

"And young man, gonna make mistakes... 'till he hits the breaks"
E|-----x-x----------x---x-x--------|--x-x-----------x---x-x----------|
B|-----x-x----------x---x-x--------|--x-x-----------x---x-x----------|
G|-----x-x----------5---7-7--------|--7-7-----------5---x-x----------|
D|-----7-7----------5---7-7--------|--7-7-----------5---7-7----------|
A|-----7-7----------3---5-5--------|--5-5-----------3---7-7----------|
E|-----5-5----------X---X-X--------|--X-X-----------X---5-5----------|

"My hearts on fire!..               With a strange desire"
E|-----x-x----------x---x-x--------|--x-x-----------x---x-x----------|
B|-----x-x----------x---x-x--------|--x-x-----------x---x-x----------|
G|-----x-x----------5---7-7--------|--7-7-----------5---x-x----------|
D|-----7-7----------5---7-7--------|--7-7-----------5---7-7----------|
A|-----7-7----------3---5-5--------|--5-5-----------3---7-7----------|
E|-----5-5----------X---X-X--------|--X-X-----------X---5-5----------|

FIRST SOLO:

E|---------------------------------|---------------------------------|
B|---------------------------------|---------------------------------|
G|---------------------------------|---------------------------------|
D|---------------------------------|---------------------------------|
A|-----3h5-5\/\/-3---3h5-3---------|-----3h5-5\/\/\/\--3/\/\/\//\----|
E|-3h5------------5-------5/\/\----|-3h5-----------------------------|

E|---------------------------------|---------------------------------|
B|---------------------------------|---------------------------------|
G|---------------------------------|---------------------------------|
D|---------------------------------|---------------------------------|
A|-----3h5-5\/\/-3---3h5-3---------|-----3h5-5\/\--3-----------------|
E|-3h5------------5-------5/\/\----|-3h5-------------5-4-3-0-5/\/\/--|

E|---------------------------------|
B|---------------------------------|
G|---------------------------------|
D|---------------------------------|
A|----------------------------3h5p3|
E|(cont)5/\/\/\/\/-----------------|


VERSE


"Whoah!                             Whoah!"
E|-----x-x----------x---x-x--------|--x-x-----------x---x-x----------|
B|-----x-x----------x---x-x--------|--x-x-----------x---x-x----------|
G|-----x-x----------5---7-7--------|--7-7-----------5---x-x----------| x2
D|-----7-7----------5---7-7--------|--7-7-----------5---7-7----------|
A|-----7-7----------3---5-5--------|--5-5-----------3---7-7----------|
E|-----5-5----------X---X-X--------|--X-X-----------X---5-5----------|

"All those birds, on the wire...    are gonna say that I'm a liar"
E|-----x-x----------x---x-x--------|--x-x-----------x---x-x----------|
B|-----x-x----------x---x-x--------|--x-x-----------x---x-x----------|
G|-----x-x----------5---7-7--------|--7-7-----------5---x-x----------|
D|-----7-7----------5---7-7--------|--7-7-----------5---7-7----------|
A|-----7-7----------3---5-5--------|--5-5-----------3---7-7----------|
E|-----5-5----------X---X-X--------|--X-X-----------X---5-5----------|

"But we all know, in the end...    they never was my friend"
E|-----x-x----------x---x-x--------|--x-x-----------x---x-x----------|
B|-----x-x----------x---x-x--------|--x-x-----------x---x-x----------|
G|-----x-x----------5---7-7--------|--7-7-----------5---x-x----------|
D|-----7-7----------5---7-7--------|--7-7-----------5---7-7----------|
A|-----7-7----------3---5-5--------|--5-5-----------3---7-7----------|
E|-----5-5----------X---X-X--------|--X-X-----------X---5-5----------|

"My hearts on fire!..               With a strange desire"
E|-----x-x----------x---x-x--------|--x-x-----------x---x-x----------|
B|-----x-x----------x---x-x--------|--x-x-----------x---x-x----------|
G|-----x-x----------5---7-7--------|--7-7-----------5---x-x----------|
D|-----7-7----------5---7-7--------|--7-7-----------5---7-7----------|
A|-----7-7----------3---5-5--------|--5-5-----------3---7-7----------|
E|-----5-5----------X---X-X--------|--X-X-----------X---5-5----------|

SECOND SOLO:

E|---------------------------------|---------------------------------|
B|---------------------------------|---------------------------------|
G|---------------------------------|---------------------------------|
D|---------------------------------|---------------------------------|
A|-----3h5-5\/\/-3---3h5-3---------|-----3h5-5\/\/\/\--3/\/\/\//\----|
E|-3h5------------5-------5/\/\----|-3h5-----------------------------|

E|---------------------------------|---------------------------------|
B|---------------------------------|---------------------------------|
G|---------------------------------|---------------------------------|
D|---------------------------------|---------------------------------|
A|-----3h5-5\/\/-3---3h5-3---------|-----3h5-5\/\/\/--3/\/\/---------|
E|-3h5------------5-------5/\/\----|-------------------------5/\/\/--|

E|---------------------------------|
B|---------------------------------|
G|---------------------------------|
D|---------------------------------|
A|---------------------------------|
E|(cont)5/\/\/\/\/\/\/\/\/\/\/\/\/-|

OUTRO SOLO:

E|---------------------------------|---------------------------------|
B|---------------------------------|---------------------------------|
G|---------------------------------|-5h7p5---------------------------|
D|-567/\/\/\-----------------------|-------5h7/\/\-------------------|
A|---------------------------------|---------------------------------|
E|---------------------------------|---------------------------------|

E|---------------------------------|---------------------------------|
B|-8-7-5---------------------------|---------------------------------|
G|-------7s9/\/---5-7-5------------|---------------------------------|
D|---------------------7-5---------|-10-9-10-9-10s12/\/--10-910s12---|
A|-------------------------7s12/\/\--------|-------------------------|
E|---------------------------------|---------------------------------|

E|---------------------------------|---------------------------------|
B|---------------------------------|---------------------------------|
G|---------------------------------|------5s7-5-7-5-7s9/\/\--(fade)--|
D|-10-9-10s12s10/\/\/\-------------|-----7---------------------------|
A|---------------------------------|---7-----------------------------|
E|---------------------------------|---------------------------------|
Tap to rate this tab
 
# A B C D E F G H I J K L M N O P Q R S T U V W X Y Z