Song name
# A B C D E F G H I J K L M N O P Q R S T U V W X Y Z

Black Keys - Oceans And Streams tab

OCEANS AND STREAMS

The Black Keys

Transcribed by Danleary

Standard Tuning

Key

 ^ : Bend [1/4, 1/2, 1, etc.]
 v : Bring bend back down
 / : Slide into
 \ : Slide out of
 h : Hammer on
 p : Pull off
(-): Ghost note
 = : Vibrato
 x : Mute
_____________________________________________________________________________

Intro/Verse

0:00                                    0:05                          0:08
    E                   F#m                             Bm
e|---------------------------2----------2--------2--x---------2-2-----------|
B|---------------------------2----------2--------2--x---------3-3-----------|
G|--1---------------x-1------2----------2--------2--x-0---4---4-4--2--------|
D|--2---------------x-------------x-4-------------------4-------------------|
A|--2---0-----------x-------------x-----------------------------------------|
E|--0-------4---3-------2---------x---2---0-2-------------------------------|


0:08                                             0:13                    0:16
    F#m                             Bm         F#m
e|-------2----------2--------2--x-x-------2-2---------2----------2--------2-|
B|-------2----------2--------2--x-x-------3-3---------2----------2--------2-|
G|-------2----------2--------2--x-x---4---4-4---------2----------2--------2-|
D|------------x-4-------------------4----------------------x-4--------------|
A|------------x--------------------------------------------x----------------|
E|--2---------x---2---0-2----------------------0-2---------x---2---0-2------|

                                             With Guilt...    ...should carry

0:17                                                                     0:26
            Bm                                        F#m
e|------2-2--------2-------x---2--------2------------------2----x-2---2-----|
B|------2-2--------3-------x---3--------3------------------2----x-2---2-----|
G|------2-2--------4-------x---4--------4------------------2----x-2---2-----|
D|-x-4------------------------------------------0---------------------------|
A|-x--------0-2--------0h2---2---0-2--------0-2---2-0-----------------------|
E|-x--------------------------------------------------2-------------2---0-2-|

               Heavy enough...           ...buried        I see... ...tonight

0:26                                                   0:33
                  Bm
e|---2----z-2---2-------2--------2--------2----------2----------------------|
B|---2----z-2---2-------3--------3--------3----------3----------------------|
G|---2----z-2---2-------4----x---4--------4----x-4---4----------------------|
D|---------------------------x-----------------x----------------------------|
A|----------------0-2--------x-2---0-2---------x---2------------------------|
E|------------2-------------------------------------------------------------|

                    's got me...   ,,,run and hide
_____________________________________________________________________________
Tap to rate this tab
# A B C D E F G H I J K L M N O P Q R S T U V W X Y Z