Song name
# A B C D E F G H I J K L M N O P Q R S T U V W X Y Z

Black Keys - Hurt Like Mine tab

-------------------------------------------------------------------------------
			     Hurt Like Mine -- The Black Keys
-------------------------------------------------------------------------------
Tabbed by: S Brita
Email:

Tuning: regular I believe Dan finger picks this in order to have all that open string 
to the guitar part.

e|------------------0-----------------------0--------------------------------|
B|------------------0-----------------------0--------------------------------|
G|----2-2-2-0-h1------2-p0---------------------------------------------------|
D|---------------2---------2-2-p0---0-h2-------------------------------------|
A|--------------------------------2------------------------------------------|
E|-0-------------------------------------0-----------------------------------|

Chord transition,  a few times he runs up the E string to frets 5 & 7
e|----3---5---3---2---3---2---2---3---2---2----------------------------------|
B|----2---2---2---2---2---2---5---2---2---5---3--p0--------------------------|
G|----2---2---2---2---2---2---2---2---2---2---------2--p0--------------------|
D|----2---2---2---2---2---2---2---2---2---2----------------2-----------------|
A|---------------------------------------------------------------------------|
E|------------------------------------------------------------0--------------|
Tap to rate this tab
# A B C D E F G H I J K L M N O P Q R S T U V W X Y Z