Song name
# A B C D E F G H I J K L M N O P Q R S T U V W X Y Z

Black Keys - Strange Desire tab

Black Keys - Strange desire - Magic Potion 2006

Intro (0:19):

E|--x---x-x------------------------|--x---x-x------------------------|
B|--x---x-x------------------------|--x---x-x------------------------|
G|--x---x-x------------------------|--x---x-x------------------------|
D|--5---7-7------------------------|--5---7-7------------------------|
A|--5---7-7------------------------|--5---7-7------------------------|
E|--3---5-5------------------------|--3---5-5------------------------|

"Whoah!                             Whoah!"
E|--x---x-x----------x---x-x-------|--x-x-----------x---x-x----------|
B|--x---x-x----------x---x-x-------|--x-x-----------x---x-x----------|
G|--x---x-x----------5---7-7-------|--7-7-----------5---x-x----------| x2 
D|--5---7-7----------5---7-7-------|--7-7-----------5---7-7----------|
A|--5---7-7----------3---5-5-------|--5-5-----------3---7-7----------|
E|--3---5-5----------X---X-X-------|--X-X-----------X---5-5----------|


Verse (0:40):

"I don't wanna go to hell, but if I do... It'll be 'cus of you"
E|-----x-x----------x---x-x--------|--x-x-----------x---x-x----------|
B|-----x-x----------x---x-x--------|--x-x-----------x---x-x----------|
G|-----x-x----------5---7-7--------|--7-7-----------5---x-x----------|
D|-----7-7----------5---7-7--------|--7-7-----------5---7-7----------|
A|-----7-7----------3---5-5--------|--5-5-----------3---7-7----------|
E|-----5-5----------X---X-X--------|--X-X-----------X---5-5----------|

"And young man, gonna make mistakes... 'till he hits the breaks"
E|-----x-x----------x---x-x--------|--x-x-----------x---x-x----------|
B|-----x-x----------x---x-x--------|--x-x-----------x---x-x----------|
G|-----x-x----------5---7-7--------|--7-7-----------5---x-x----------|
D|-----7-7----------5---7-7--------|--7-7-----------5---7-7----------|
A|-----7-7----------3---5-5--------|--5-5-----------3---7-7----------|
E|-----5-5----------X---X-X--------|--X-X-----------X---5-5----------|

"My hearts on fire!..               With a strange desire"
E|-----x-x----------x---x-x--------|--x-x-----------x---x-x----------|
B|-----x-x----------x---x-x--------|--x-x-----------x---x-x----------|
G|-----x-x----------5---7-7--------|--7-7-----------5---x-x----------|
D|-----7-7----------5---7-7--------|--7-7-----------5---7-7----------|
A|-----7-7----------3---5-5--------|--5-5-----------3---7-7----------|
E|-----5-5----------X---X-X--------|--X-X-----------X---5-5----------|

1.1 Solo (1:04):

E|---------------------------------|---------------------------------|
B|---------------------------------|---------------------------------|
G|---------------------------------|---------------------------------|
D|---------------------------------|---------------------------------|
A|-----3h5-5V----3---3h5-3---------|-----3h5-5v--------3v------------|
E|-3h5------------5-------5v-------|-3h5-----------------------------|

E|---------------------------------|---------------------------------|
B|---------------------------------|---------------------------------|
G|---------------------------------|---------------------------------|
D|---------------------------------|---------------------------------|
A|-----3h5-5v----3---3h5-3---------|-----3h5-5v----3-----------------|
E|-3h5------------5-------5v-------|-3h5-------------5-4-3-0-5v------|

E|---------------------------------|
B|---------------------------------|
G|---------------------------------|
D|---------------------------------|
A|-3h5p3---------------------------|
E|---------------------------------|


Verse (1:25)


"Whoah!                             Whoah!"
E|-----x-x----------x---x-x--------|--x-x-----------x---x-x----------|
B|-----x-x----------x---x-x--------|--x-x-----------x---x-x----------|
G|-----x-x----------5---7-7--------|--7-7-----------5---x-x----------| x2
D|-----7-7----------5---7-7--------|--7-7-----------5---7-7----------|
A|-----7-7----------3---5-5--------|--5-5-----------3---7-7----------|
E|-----5-5----------X---X-X--------|--X-X-----------X---5-5----------|

"All those birds, on the wire...    are gonna say that I'm a liar"
E|-----x-x----------x---x-x--------|--x-x-----------x---x-x----------|
B|-----x-x----------x---x-x--------|--x-x-----------x---x-x----------|
G|-----x-x----------5---7-7--------|--7-7-----------5---x-x----------|
D|-----7-7----------5---7-7--------|--7-7-----------5---7-7----------|
A|-----7-7----------3---5-5--------|--5-5-----------3---7-7----------|
E|-----5-5----------X---X-X--------|--X-X-----------X---5-5----------|

"But we all know, in the end...    they never was my friend"
E|-----x-x----------x---x-x--------|--x-x-----------x---x-x----------|
B|-----x-x----------x---x-x--------|--x-x-----------x---x-x----------|
G|-----x-x----------5---7-7--------|--7-7-----------5---x-x----------|
D|-----7-7----------5---7-7--------|--7-7-----------5---7-7----------|
A|-----7-7----------3---5-5--------|--5-5-----------3---7-7----------|
E|-----5-5----------X---X-X--------|--X-X-----------X---5-5----------|

"My hearts on fire!..               With a strange desire"
E|-----x-x----------x---x-x--------|--x-x-----------x---x-x----------|
B|-----x-x----------x---x-x--------|--x-x-----------x---x-x----------|
G|-----x-x----------5---7-7--------|--7-7-----------5---x-x----------|
D|-----7-7----------5---7-7--------|--7-7-----------5---7-7----------|
A|-----7-7----------3---5-5--------|--5-5-----------3---7-7----------|
E|-----5-5----------X---X-X--------|--X-X-----------X---5-5----------|

1.2 Solo (2:03):

E|---------------------------------|---------------------------------|
B|---------------------------------|---------------------------------|
G|---------------------------------|---------------------------------|
D|---------------------------------|---------------------------------|
A|-----3h5-5v----3---3h5-3---------|-----3h5-5v--------3v------------|
E|-3h5------------5-------5v-------|-3h5-----------------------------|

E|---------------------------------|---------------------------------|
B|---------------------------------|---------------------------------|
G|---------------------------------|---------------------------------|
D|---------------------------------|---------------------------------|
A|-----3h5-5v----3---3h5-3---------|-----3h5-5v-------3v-------------|
E|-3h5------------5-------5v-------|-3h5---------------------5v------|



2.1 Solo (2:32):

E|---------------------------------|---------------------------------|
B|---------------------------------|---------------------------------|
G|---------------------------------|-5h7p5---------------------------|
D|-5h6h7v--------------------------|-------5h7v----------------------|
A|---------------------------------|---------------------------------|
E|---------------------------------|---------------------------------|

E|---------------------------------|---------------------------------|
B|-8-7-5---------------------------|---------------------------------|
G|-------7s9v--5-7-5---------------|---------------------------------|
D|-------------------7-5-----------|-10-9-10-9-10s12v----10-9-10s12v-|
A|-----------------------7-(7)s12v-|---------------------------------|
E|---------------------------------|---------------------------------|

E|---------------------------------|---------------------------------|
B|---------------------------------|---------------------------------|
G|---------------------------------|---------5---5-7(7)s9v-----------|
D|-10-9-10s12s10v------------------|-----5-7---7---------------------|
A|---------------------------------|---7-----------------------------|
E|---------------------------------|---------------------------------|



2.2 Solo (3:33):

E|-10-8----------------------------|---------------------------------|
B|------10-8-----------------------|---------------------------------|
G|-----------7--5-7-5-7-7b(9)-5----|-----------5---5----5------------|
D|------------------------------7v-|-------5-7---7----7---7v---------|
A|---------------------------------|-----7---------------------------|
E|---------------------------------|---------------------------------|

E|---------5-8--5-5v------8-10-8v--|----8----10s12-8-10-8----8-10s12-|
B|-8---5-8-------------------------|-10---10--------------10---------|
G|---7-----------------------------|---------------------------------|
D|---------------------------------|---------------------------------|
A|---------------------------------|---------------------------------|
E|---------------------------------|---------------------------------|

E|-8-10-8----8---------------------|---------------------------------|
B|--------10----10------8---8-10---|---------------------------------|
G|------------------------9------7-|-5-7-5-7b(9)----5v-7v--5v--------|
D|---------------------------------|--------------------------7v-----|
A|---------------------------------|---------------------------------|
E|---------------------------------|---------------------------------|

E|---------------------------------|
B|---------------------------------|
G|---------------------------------|
D|---------------------------------|
A|-7v--3v--------------------------|
E|---------5v/---------------------|

By Gasp
Tap to rate this tab
# A B C D E F G H I J K L M N O P Q R S T U V W X Y Z