Song name
# A B C D E F G H I J K L M N O P Q R S T U V W X Y Z

Black Keys - Have Love Will Travel tab

-----------------------------------------------------------------------------
		  Have Love Will Travel - The Black Keys
-----------------------------------------------------------------------------
Tabbed by: spyder52
Email: cookie.shack@googlemail.com

Tuning: Standard
This is my first TAB, I looked at the other versions of the Intro and they 
sounded wrong, I believe this is the correct way to play it:

e|--------------------------------------------------------------------------|
B|--------------------------------------------------------------------------|
G|----------5--7--7--5-5/9-7--5--7--5--2--0---------------------------------|
D|--5/7--7------------------------------------------------------------------|
A|--------------------------------------------------------------------------|
E|--------------------------------------------------------------------------|

e|--------------------------------------------------------------------------|
B|--------------------------------------------------------------------------|
G|---------5--7--7--5-5/9---------------------------------------------------|
D|--7--7--------------------------------------------------------------------|
A|------------------------------------------5--5-----5/7--7-----7--0--------|
E|------------------------------3/5--5--8---------8----------8--------3-----|

e|--------------------------------------------------------------------------|
B|--------------------------------------------------------------------------|
G|--------------------------------------------------------------------------|
D|--------------------------------------------------------------------------|
A|------------5--5----5/7--7---7--0----------------5--5-----5/7--7----7--0--|
E|-3/5--5--8-------8---------8-------3--3/5--5--8--------8----------8------3|

e|--------------------------------------------------------------------------|
B|--------------------------------------------------------------------------|
G|--------------------------------------------------------------------------|
D|--------------------------------------------------------------------------|
A|-----------5--5-----5/7-7-10--12------------------------------------------|
E|3/5--5--8--------8--------------------------------------------------------|

| /  slide up
| \  slide down
| h  hammer-on
| p  pull-off
| ~  vibrato
| +  harmonic
| x  Mute note
=============================================================================
Tap to rate this tab
# A B C D E F G H I J K L M N O P Q R S T U V W X Y Z