Song name
# A B C D E F G H I J K L M N O P Q R S T U V W X Y Z

Black Keys - Chop And Change tab

Song: Chop + Change
Artist: The Black Keys
Album: The Twilight Saga: Eclipse
Tuning: Standard E

Tabbed by: Beckett Woodworth
Email: beckett360@yahoo.com

Intro + Bridge:
e|----------------|
B|----------------|
G|----------------| 
D|-2-2--2-2--2-2--| Repeat
A|-2-2--2-2--2-2--|
E|-0-0--0-0--0-0--|
        PM

Verse + Chorus
e|-------------------------------|
B|-------------------------------|
G|-------------------------------|
D|-------------------------------|
A|----5h7-5----------------------|
E|--0-------7--5h7-5--5h7\3-3h5--|

Guitar 2 (not easily heard in the background):
e|-------------------------------------|
B|---------------8---------------------|
G|--9--9-9-9-7-9-----9--9-9-9-7-9------|
D|--------------------------------9b---|
A|-------------------------------------|
E|-------------------------------------|

Outro:
e|----------------|
B|----------------|
G|----------------|
D|-2-2--2-2--2-2--|
A|-2-2--2-2--2-2--|
E|-0-0--0-0--0-0--|
        PM

The solo is improvised in a C pentatonic. It's just like the guitar 2 part.

Have fun

Key:
h ---- hammor on
\ ---- slide up
b ---- semi bend
PM --- palm muted 
Tap to rate this tab
# A B C D E F G H I J K L M N O P Q R S T U V W X Y Z