Song name
# A B C D E F G H I J K L M N O P Q R S T U V W X Y Z

Black Keys - 10 Cent Pistol tab

10 Cent Pistol

The Black Keys

Standard Tuning

Key

 ^ : Bend [1/4, 1/2, 1, etc.]
 v : Bring bend back down
 / : Slide into
 \ : Slide out of
 h : Hammer on
 p : Pull off
(-): Ghost note
 ~ : Vibrato
 x : Mute
 T : Fret with thumb
_____________________________________________________________________________

Intro/Verse

   Gm                          Cm

e|----3-----3--3--|----3----3--3--|
B|----3-----3--3--|----3----3--4--|
G|----3-----3--3--|----3----3--5--|
D|----5-----------|----5----------|
A|----------------|---------------|
E|-3--------------|-3-------------|

_____________________________________________________________________________

Chorus


e|-------------------|------------------|----------------|-------------|
B|-------------------|------------------|----------------|-------------|
G|-10/12~~~10/12~~~10|/12~~~~10\7\5\3/5-|-5/7~~~3/5---3/5|/7~~~~~7---10|
D|--x-------x-------x|--------x---------|-x-----x-----x--|-------x----x|
A|--8/10~~~~8/10~~~~8|/10~~~~~8\5\3\1/3-|-3/5~~~1/3---1/3|/5~~~~~5----8|
E|-------------------|------------------|----------------|-------------|

 

e|----------------|------------------|-----------------|---3-----3--3--|
B|----------------|------------------|-----------------|---3-----3--3--|
G|/12~~~10/12~~~10|/12~~~~10\7\5\3/5-|-5/7~~~3/5---5\3-|---3-----3--3--|
D|-------x-------x|--------x---------|-x-----x-----x---|---5-----------|
A|/10~~~~8/10~~~~8|/10~~~~~8\5\3\1/3-|-3/5~~~1/3---3\1-|---------------|
E|----------------|------------------|-----------------|-3-------------|

_____________________________________________________________________________

Pre Chorus

This is the live version. On the studio record, he does an octave 
figure overdubbed on top of a Cm Gm chord progression. 

          Cm                              Gm

e|------|----3-----3--3--|----3---------|----3-----3--3--|----3-----3-----|
B|------|----4-----4--4--|----4---------|----3-----3--3--|----3-----3-----|
G|------|----5-----5--5--|----5---------|----3-----3--3--|----3-----3-----|
D|------|----5-----------|----5----3--4-|----5-----------|----5-----------|
A|-5--4-|-3--------------|-3------------|----------------|----------------|
E|------|----------------|--------------|-3--------------|-3--------------|



_____________________________________________________________________________

First solo


e|-------------6-----6-------|-----------------------------|
B|-8-8-8-8-8-8-----8---8~~~--|--------------6-----6-8-6----|
G|---------------------------|--7-7-7-7-7-7-----7-------7--|
D|---------------------------|-----------------------------|
A|---------------------------|-----------------------------|
E|---------------------------|-----------------------------|


e|-------------6-----6-------|--/10--6-8-6-----------------|
B|-8-8-8-8-8-8-----8---8~~~--|---------------8-6-----6h8~~~|
G|---------------------------|-------------------7---------|
D|---------------------------|-----------------------------|
A|---------------------------|-----------------------------|
E|---------------------------|-----------------------------|

_____________________________________________________________________________

Second solo

In bar 3 he turns on an octave effect. (It might be an overdub, not sure.)

e|----------6--------|----------6h8---6---|-----------------------|
B|-8-8-8-8----8------|--8-8-8-8-----------|-----------------------|
G|-------------------|--------------------|----------3-----3------|
D|-------------------|--------------------|--5-5-5-5-----5---5~~--|
A|-------------------|--------------------|-----------------------|
E|-------------------|--------------------|-----------------------|


e|------------------|-----6-8-6------|------6--8/10---6-------|
B|------------------|---8------------|---8--------------8-8~~-|
G|--3h5----3--------|----------------|------------------------|
D|-----------5-5~~--|----------------|------------------------|
A|------------------|----------------|------------------------|
E|------------------|----------------|------------------------|


e|-----6-8-6------|-/10----6-8-6---------|----------------------|
B|---8------------|--------------8-------|----------------------|
G|----------------|----------------------|-------------------3--|
D|----------------|----------------------|-----3h5---3---3-5----|
A|----------------|-----------------5--4-|-3-----------5--------|
E|----------------|----------------------|----------------------|


e|-------------------|--------------------|-----6---------|---------------|
B|-------------------|---8-----6-8-8-6h8~~|---8---8-------|---------------|
G|---3-5-/7-5-3-5/7~~|-----5/7------------|---------------|------------3--|
D|-------------------|--------------------|---------------|------5-3-5----|
A|-------------------|--------------------|----------5--4-|-3-------------|
E|-------------------|--------------------|---------------|---------------|


e|-----------------------|----------------------|---------------------|
B|-----------------------|------------6---6--6--|8--/10--6--6h8--6----|
G|-----3---3h5---3---3--5|-/7---7--7------------|-------------------7-|
D|---5-------------5-----|----------------------|---------------------|
A|-----------------------|----------------------|---------------------|
E|-----------------------|----------------------|---------------------|


e|---------------------|6---------/10--6-8-6-|---------------------|
B|6h8~~~~~~-----8-8-8-8|---8~~---------------|8~~~~~---8-8-8-8-8-8-|
G|---------------------|---------------------|---------------------|
D|---------------------|---------------------|---------------------|
A|---------------------|---------------------|---------------------|
E|---------------------|---------------------|---------------------|


e|6-----------------------|
B|--8~~----6--------------|
G|-----------\5----3-5-3--|
D|------------------------|
A|------------------------|
E|------------------------|

______________________________________________________________________________

Outro Solo


e|----------------6----------|----------------6h8----6---6----|
B|----8-8-8-8-8-8-----8-6-8~~|----8-8-8-8-8------------8---8--|
G|---------------------------|--------------------------------|
D|---------------------------|--------------------------------|
A|---------------------------|--------------------------------|
E|---------------------------|--------------------------------|


e|6--5-6-5--6----6h8----6----------|--------------------------|
B|------------------------8-6---6--|--6-----------------------|
G|----------------------------5----|------\5---3-5-3---------3|
D|---------------------------------|-------------------5-3----|
A|---------------------------------|-----------------------5--|
E|---------------------------------|--------------------------|


e|------------------------|--------------3---------------------|
B|------------------------|------------3---6p3-----------5-----|
G|h5-3-----------------3h5|p3------3h5---------5p3---3h5---5p3-|
D|-----5-5~~---5-3-5------|---5--------------------5-----------|
A|------------------------|------------------------------------|
E|------------------------|------------------------------------|


e|------------------------|----------------------------|-------------|
B|-------------5----------|----------------------------|-------------|
G|---------3h5---5p3---3h5|--3h5-3h5---3---3h5----3----|-------------|
D|5------------------5----|--------------5------5---5--|-------------|
A|------------------------|----------------------------|-------------|
E|------------------------|----------------------------|-------------|


e|----------------|--------------------------|-------------|------------|
B|----------------|--------------------------|-------------|------------|
G|------------5---|--------------------------|-------------|------------|
D|----(0)-------/5|-------/5-3---------------|-------------|------------|
A|----------------|-8----------5\3-1----1h3--|-----------1-|------------|
E|----------------|--------------------------|3------1h3---|3-----------|


Tap to rate this tab
 
# A B C D E F G H I J K L M N O P Q R S T U V W X Y Z