Song name
# A B C D E F G H I J K L M N O P Q R S T U V W X Y Z

Black Keys - Unknown Brother tab

Artist: The Black Keys
Album: Brothers
Song: Unknown Brother

Tabbed by: Beckett Woodworth

Tuning: Standard

e|-2-3-4-5---5----5-4-3-2-----------|
B|-2-3-4-5----5---5-4-3-2-----2-----|
G|-3-4-5-6-----6--6-5-4-3------3----|
D|-4-5-6-7--------7-6-5-4---4---4---|
A|-------------------------------4--|
E|----------------------------------|

e|--7b------------|--7b--------------------|
B|-------5-7-5----|-------5h7-5h7p5---5-7--|
G|-------------6--|-----------------6------|
D|----------------|------------------------|
A|----------------|------------------------|
E|----------------|------------------------|

e|---5-7-7-7-7-5--5-----------5-7/12---9h12p9----------------------|
B|--7-----------7---7-5---5-7-----------------9h12p9---------------|
G|----------------------6----------------------------9h11p9--------|
D|----------------------------------------------------------9h11p9-|
A|-----------------------------------------------------------------|
E|-----------------------------------------------------------------|

e|--------------------|
B|--------------------|
G|--------------------|
D|--------------------|
A|--------------------|
E|-2-3-4-5---5-4-3-2--|

Guitar 2 strums these chords during the verses and choruses
  F#   A
e|-2-|-5-|
B|-2-|-5-|
G|-3-|-6-|
D|-4-|-7-|
A|---|---|
E|---|---|

Tap to rate this tab
 
# A B C D E F G H I J K L M N O P Q R S T U V W X Y Z