Song name
# A B C D E F G H I J K L M N O P Q R S T U V W X Y Z

Black Keys - The Only One tab

Artist: The Black Keys
Song: The Only One
Album: Brothers (Deluxe)

Tabbed by: Beckett Woodworth

Tuning: Standard EADGBe

e|-----------------------|
B|-----------------------|
G|-11-11-9-11-9----------|
D|--------------9-11-----|
A|-----------------------|
E|-----------------------|

e|-----------------------|
B|-----------------------|
G|-----------------------|
D|-11-11-9-11-9----------|
A|--------------9-11-----|
E|-----------------------|
Tap to rate this tab
 
# A B C D E F G H I J K L M N O P Q R S T U V W X Y Z