Song name
# A B C D E F G H I J K L M N O P Q R S T U V W X Y Z

Black Keys - Stack Shot Billy tab

Stack Shot Billy
By The Black Keys
Tabbed by: Inepsy
Tuning: a half step down (A minor)

e|----5--3h5-3--3h5/8--5p3-----------------------------------------------/5|
B|----------------------------------------------------------5-----5-8-5-8/5|
G|---5---5---5--5------5---7p5---------------------5-----5-7-7-5-7---------|
D|------------------------------7---------------5h7-7-5h7------------------|
A|-----------------------------------------7---7---------------------------|
E|------------------------------------5-3--5h8-5---------------------------|

e|-5-5-b8-5----3h5-3-------------------------------------------------------|
B|--5------7/5------5------------------------------------------------------|
G|-------------------b7-5-------h5-----------------------------------------|
D|-----------------------7-5h7-7----5h7------------------------------------|
A|-------------------------------------------------------------------------|
E|------------------------5---5---5-----3-5-----3-5------------------------|

Somethin' like that. It's all played real fast too.
    It bugs me when people just put intro's for songs and not the whole thing so sorry 
that, but there's already some fine tabs for the actual song but neither has the intro. 
there is already an intro tab, but it sucks.
    Anyway I think this is pretty much right, but I haven't managed to get it sounding 
cuz' I'm not good enough yet.
Tap to rate this tab
 
# A B C D E F G H I J K L M N O P Q R S T U V W X Y Z