Song name
# A B C D E F G H I J K L M N O P Q R S T U V W X Y Z

Black Keys - Thickfreakness tab

---------------------------------------------------------------------------
Thickfreakness  The Black Keys
---------------------------------------------------------------------------

Tabbed by: Alinktothepast9

Tuning: EADGBe

Great song by my favorite band.

Crank the distortion way, way up.

I don't have a slide so I didn't figure out the slide intro.

e|--------------------------------------------------------------------------|
B|--------------------------------------------------------------------------|
G|--------------------------------------------------------------------------|
D|------s7p5------------------------s7p5------------------------------------|
A|-----------7-5-5-3-5-5p3p0-------------7-5-5-3-5-3h5-3h5-5p3p0------------|
E|---------------------------3-5---------------------------------3----------|

e|--------------------------------------------------------------------------|
B|--------------------------------------------------------------------------|
G|--------------------------------------------------------------------------|
D|------s7p5------------------------s7p5---------------5--------------------|
A|-----------7-5-5-3-5-5p3p0-------------7-5-5-3-5s7------------------------|
E|---------------------------3-5--------------------------------------------|

e|--------------------------------------------------------------------------|
B|--------------------------------------------------------------------------|
G|------2---2---2-2----------2---2---2---2p0--------------------------------|
D|------2---2---2-2----------2---2---2-------2p0----------------------------|
A|----0---0---0------------0---0---0-------------3--------------------------|
E|------------------0-3-5---------------------------------------------------|

e|--------------------------------------------------------------3-0---------|
B|---------------------------------------------1-3-1-----1----1-----3p1-----|
G|------2---2---2-2----------2---2---2-------2-------0h2--2--2----------2-2-|
D|------2---2---2-2----------2---2---2--------------------------------------|
A|----0---0---0------------0---0---0----------------------------------------|
E|------------------0-3-5---------------------------------------------------|

e|--------------------------------------------------------------------------|
B|--------------------------------------------------------------------------|
G|------2---2---2-2----------2---2---2---2p0--------------------------------|
D|------2---2---2-2----------2---2---2-------2p0----------------------------|
A|----0---0---0------------0---0---0-------------3--------------------------|
E|------------------0-3-5---------------------------------------------------|

e|--------------------------------------------------------------3-0---------|
B|---------------------------------------------1-3-1-----1----1-----3p1-----|
G|------2---2---2-2----------2---2---2-------2-------0h2--2--2----------2---|
D|------2---2---2-2----------2---2---2--------------------------------------|
A|----0---0---0------------0---0---0----------------------------------------|
E|------------------0-3-5---------------------------------------------------|

e|--------------------------------------------------------------------------|
B|--------------------------------------------------------------------------|
G|------2---2---2-2----------2---2---2---2p0--------------------------------|
D|------2---2---2-2----------2---2---2-------2p0----------------------------|
A|----0---0---0------------0---0---0-------------3--------------------------|
E|------------------0-3-5---------------------------------------------------|

e|----------------------------------------------------------0---------------|
B|------------------------------------------------s5-3-s3-1---3p1-----------|
G|------2---2---2-2----------2---2---2------------s4-2-s2-0-------2---------|
D|------2---2---2-2----------2---2---2--------------------------------------|
A|----0---0---0------------0---0---0----------------------------------------|
E|------------------0-3-5---------------5-3-0-------------------------------|

e|--------------------------------------------------------------------------|
B|--------------------------------------------------------------------------|
G|------2---2---2-2----------2---2---2--------------------------------------|
D|------2---2---2-2----------2---2---2--------------------------------------|
A|----0---0---0------------0---0---0----------------------------------------|
E|------------------0-3-5---------------5-3-0-------------------------------|

e|--------------------------------------------------------------------------|
B|--------------------------------------------------------------------------|
G|--------------------------------------------------------------------------|
D|------s7p5------------------------s7p5------------------------------------|
A|-----------7-5-5-3-5-5p3p0-------------7-5-5-3-5-3h5-3h5-5p3p0------------|
E|---------------------------3-5---------------------------------3----------|

e|--------------------------------------------------------------------------|
B|--------------------------------------------------------------------------|
G|--------------------------------------------------------------------------|
D|------s7p5------------------------s7p5---------------5--------------------|
A|-----------7-5-5-3-5-5p3p0-------------7-5-5-3-5s7------------------------|
E|---------------------------3-5--------------------------------------------|

|Solo|: There are two guitars here (a simplified version can be played by one but I 
it into two parts like in the song) (the timing on guitar two is a little off the way I 
it because its hard to explain the exact timing through a tab. Listen to the song for timing)

Guitar 1:

e|--------------------------------------------------------------------------|
B|--------------------------------------------------------------------------|
G|--------------------------------------------------------------------------|
D|---7--7-7-5--5-5--------------7--7-7-5--5-5-------------------------------|
A|---7--7-7-5--5-5--------------7--7-7-5--5-5-------------------------------|
E|---5--5-5-3--3-3--------------5--5-5-3--3-3-------------------------------|

Guitar 2:

e|---------------------5-3--------------------------------------------------|
B|-----------------3b------5-3b--------------3h5p3-------3h5p3--------------|
G|----2v------------------------5--0-2v--0h2-------5-7p5-------2~-----------|
D|--------------------------------------------------------------------------|
A|--------------------------------------------------------------------------|
E|--------------------------------------------------------------------------|

Guitar 1:

e|--------------------------------------------------------------------------|
B|--------------------------------------------------------------------------|
G|--------------------------------------------------------------------------|
D|---7--7-7-5--5-5-----------7--7-7-5--5-5----------------------------------|
A|---7--7-7-5--5-5-----------7--7-7-5--5-5----------------------------------|
E|---5--5-5-3--3-3-----------5--5-5-3--3-3----------------------------------|

Guitar 2:

e|-------------------3v-----------------------------------------------------|
B|-----------------s5-----------1--------------s5---------------------------|
G|---0h2---------------------s2--s2---0-0h2----s4---------------------------|
D|----------------------------------2---------------------------------------|
A|--------------------------------------------------------------------------|
E|--------------------------------------------------------------------------|

|End Solo|

e|------------------------------------------------------3-0-----------------|
B|------------------------------------1-3-1-----1----1-----3p1--------------|
G|---2p0-------0p2------------------2-------0h2--2--2----------2------------|
D|-------2p0---0p2----------------------------------------------------------|
A|-----------3-0------------------------------------------------------------|
E|--------------------------------------------------------------------------|

e|--------------------------------------------------------------------------|
B|--------------------------------------------------------------------------|
G|------2---2---2-2----------2---2---2---2p0--------------------------------|
D|------2---2---2-2----------2---2---2-------2p0----------------------------|
A|----0---0---0------------0---0---0-------------3--------------------------|
E|------------------0-3-5---------------------------------------------------|

e|--------------------------------------------------------------3-0---------|
B|---------------------------------------------1-3-1-----1----1-----3p1-----|
G|------2---2---2-2----------2---2---2-------2-------0h2--2--2----------2---|
D|------2---2---2-2----------2---2---2--------------------------------------|
A|----0---0---0------------0---0---0----------------------------------------|
E|------------------0-3-5---------------------------------------------------|

e|--------------------------------------------------------------------------|
B|--------------------------------------------------------------------------|
G|------2---2---2-2----------2---2---2---2p0--------------------------------|
D|------2---2---2-2----------2---2---2-------2p0----------------------------|
A|----0---0---0------------0---0---0-------------3--------------------------|
E|------------------0-3-5---------------------------------------------------|

e|----------------------------------------------------------0---------------|
B|------------------------------------------------s5-3-s3-1---3p1-----------|
G|------2---2---2-2----------2---2---2------------s4-2-s2-0-------2---------|
D|------2---2---2-2----------2---2---2--------------------------------------|
A|----0---0---0------------0---0---0----------------------------------------|
E|------------------0-3-5---------------5-3-0-------------------------------|

e|--------------------------------------------------------------------------|
B|--------------------------------------------------------------------------|
G|------2---2---2-2----------2---2---2--------------------------------------|
D|------2---2---2-2----------2---2---2--------------------------------------|
A|----0---0---0------------0---0---0----------------------------------------|
E|------------------0-3-5---------------5-3-0-------------------------------|

e|--------------------------------------------------------------------------|
B|--------------------------------------------------------------------------|
G|--------------------------------------------------------------------------|
D|------s7p5------------------------s7p5------------------------------------|
A|-----------7-5-5-3-5-5p3p0-------------7-5-5-3-5-3h5-3h5-5p3p0------------|
E|---------------------------3-5---------------------------------3----------|

e|--------------------------------------------------------------------------|
B|--------------------------------------------------------------------------|
G|--------------------------------------------------------------------------|
D|------s7p5------------------------s7p5------------------------------------|
A|-----------7-5-5-3-5-5p3p0-------------7-5-5-3-5-3h5-3h5-5p3p0------------|
E|---------------------------3-5---------------------------------3----------|

e|--------------------------------------------------------------------------|
B|--------------------------------------------------------------------------|
G|--------------------------------------------------------------------------|
D|------s7p5------------------------s7p5------------------------------------|
A|-----------7-5-5-3-5-5p3p0-------------7-5-5-3-5-3h5-3h5-5p3p0------------|
E|---------------------------3-5---------------------------------3----------|

e|--------------------------------------------------------------------------|
B|--------------------------------------------------------------------------|
G|---------------------------------------------------------2----------------|
D|------s7p5------------------------s7p5-------------------2----------------|
A|-----------7-5-5-3-5-5p3p0-------------7-5-5-3-5s7-5-3-0-0----------------|
E|---------------------------3-5--------------------------------------------|


I'll make corrections if I notice somethings wrong. Enjoy.

************************************

| s   slide
| h   hammer-on
| p   pull-off
| v   vibrato
| +   harmonic
| x   Mute note
| b   Bend
| pb  Pre-bend
| br  Bend release
| pbr Pre-bend release
| brb Bend release bend

************************************
Tap to rate this tab
 
# A B C D E F G H I J K L M N O P Q R S T U V W X Y Z