Song name
# A B C D E F G H I J K L M N O P Q R S T U V W X Y Z

Black Keys - Same Old Thing tab

The Black Keys

Same Old Thing (live at Abbey Road) 

http://www.youtube.com/watch?v=Wvqh6eH7AMA

Key

 b : Bend 
 r : Release
 / : Slide into
 \ : Slide out of
 h : Hammer on
 p : Pull off
(-): Ghost note
 v : Vibrato
 x : Mute
 u : Up stroke
 d : Down stroke
 T : Fret with thumb

_____________________________________________________________________________

Intro/Verse

 
e|--------------------------------|-------------------------------------|
B|--------------------------------|-------------------------------------|
G|--------------------------------|-------------------------------------|
D|---------------7v---------------|-------------------------------------|
A|--3-5(p0)--------------(0)-(0)--|7v----(0)-(0)-5v----(0)-(0)-2h3p2h3--|
E|5---------5---------------------|-------------------------------------|


Variation
 

e|--------------------------------|-------------------------------------|
B|--------------------------------|-------------------------------------|
G|--------------------------------|-------------------------------------|
D|---------------7v-(7)/10v---\7--|-------------------------------------|
A|--3-5(p0)-----------------------|7v----(0)-(0)-5v----(0)-(0)-2h3p2h3--|
E|5---------5---------------------|-------------------------------------|


Variation II


e|-----------------------------|-------------------------------------|
B|-----------------------------|-------------------------------------|
G|-----------------------------|-------------------------------------|
D|---------------7v----5b------|-------------------------------------|
A|--3-5(p0)--------------------|7v----(0)-(0)-5v----(0)-(0)-2h3p2h3--|
E|5---------5------------------|-------------------------------------|

_____________________________________________________________________________

Chorus


e|---------------------------|-----------------------------|
B|---------------------------|-----------------------------|
G|-----(0)-------------------|-----------------------------|
D|-----(0)-------------------|-----------------------------|
A|5----(0)---3p2--0----------|5-5-5-5-5-----3p2-0----------|
E|---------------------3b----|-----------------------3b----|


e|---------------------------|-----------------------------|
B|---------------------------|-----------------------------|
G|-----(0)-------------------|-----------------------------|
D|-----(0)-------------------|-----------5-----------------|
A|5----(0)---3p2--0----------|-----7p5-7---7v--------------|
E|---------------------3b----|0----------------------------|

_____________________________________________________________________________

Breakdown

  A

e|------------------------------|
B|------------------------------|
G|6-6-6-6-6----------------(0)--|
D|7-7-7-7-7------------5h7-(0)--|
A|7-7-7-7-7---5----h7------(0)--|
E|5-5-5-5-5---------------------|


  D               C           G           A

e|------------------------------------------|
B|------------------------------------------|
G|11-11-11-11-----9--9--9--9--------4-4-4/6-|
D|12-12-12-12-----10-10-10-10-------5-5-5/7-|
A|12-12-12-12-----10-10-10-10-------5-5-5/7-|
E|10-10-10-10-----8--8--8--8--3-----3-3-3/5-|


  A

e|----------------5--------5-----------5----------------|
B|----------------5-----8b--8b(10)-----5----------------|
G|6-6-6-(0)-7b(9)-x----------------------7b(9)r(7)-(0)--|
D|7-7-7-(0)-------0--------------------------------(0)--|
A|7-7-7-(0)----------------------------------------(0)--|
E|5-5-5-------------------------------------------------|


  D               C                 G

e|-------------------------------------------|
B|-------------------------------------------|
G|11-11-11-11-----9--9--9--9--4-----4-4-4----|
D|12-12-12-12-----10-10-10-10-5-----5-5-5----|
A|12-12-12-12-----10-10-10-10-5-----5-5-5----|
E|10-10-10-10-----8--8--8--8--3-----3-3-3----|


  A               

e|-----5--------5--------5--------5-------------|
B|-----5-5------5-5------5-5------5-5-----------|
G|6------7b(9)----7b(9)----7b(9)----7b(9)--(0)--|
D|7----------------------------------------(0)--|
A|7----------------------------------------(0)--|
E|5---------------------------------------------|


  D               C          G     G#   

e|------------------------------------|
B|------------------------------------|
G|11-11-11-11-----9--9--9--x-4--4--5--|
D|12-12-12-12-----10-10-10-x-5--5--6--|
A|12-12-12-12-----10-10-10-x-5--5--6--|
E|10-10-10-10-----8--8--8--x-3--3--4--|


  A

e|--------------8-------8b-----0------------|
B|----5---8---5-------5--------0------------|
G|6-x-5-------5-------5----------7b(9)-(0)--|
D|7-x----------------------------------(0)--|
A|7-x----------------------------------(0)--|
E|5-x---------------------------------------|


  D               C          G  

e|-----------------------------------------|
B|-----------------------------------------|
G|11-11-11-11-----9--9--9--x-4-4------(0)--|
D|12-12-12-12-----10-10-10-x-5-5------(0)--|
A|12-12-12-12-----10-10-10-x-5-5------(0)--|
E|10-10-10-10-----8--8--8--x-3-3-----------|
Tap to rate this tab
 
# A B C D E F G H I J K L M N O P Q R S T U V W X Y Z