Song name
# A B C D E F G H I J K L M N O P Q R S T U V W X Y Z

Black Keys - Stack Shot Billy tab

The Black Keys

Stack Shot Billy (Live at Terminal 5)

http://www.youtube.com/watch?v=XbIXf67BabM

Key

 b : Bend 
 r : Release
 / : Slide into
 \ : Slide out of
 h : Hammer on
 p : Pull off
(-): Ghost note
 v : Vibrato
 x : Mute

_____________________________________________________________________________
Open G Tuning 
_____________________________________________________________________________

Intro

Freetime

Fingerstyle using only thumb and index fingers. 


d|0-----0------0------0------0-------0-------|
B|0h1---1/3----3v-----3/6----6h8-----8v------|
G|-------------------------------------------|
D|-------------------------------------------|
G|-------------------------------------------|
D|-------------------------------------------|



d|0-----0------0-----0-----0-----0-----0-------|
B|6h8---8/10---10----8\6---6h8---6\3---3v------|
G|---------------------------------------------|
D|---------------------------------------------|
G|---------------------------------------------|
D|---------------------------------------------|



d|0-----0------0------0------0-------0-------|
B|0h1---1/3----3v-----3/6----6h8-----8v------|
G|-------------------------------------------|
D|-------------------------------------------|
G|-------------------------------------------|
D|-------------------------------------------|



d|0------0-------0-------0--------0--0--0--------0--0--0--0------|
B|8/10---10/12---10h12---12/13----12-13-13/15----13-12-13-12\8---|
G|--------------------------------------------------0------------|
D|-------------------------------------------------------------0-|
G|---------------------------------------------------------------|
D|---------------------------------------------------------------|



d|-0--0---0-----0------------0--0----0--0---------------------------------|
B|/12-10--8h10--8\6--0--6\5-----5\3-----1------------------1h3--1---------|
G|------------------------------------------3b-0----0--3b---------3p0---0-|
D|-----------------------------------------------3b-------------------3---|
G|------------------------------------------------------------------------|
D|------------------------------------------------------------------------|



d|---------------------|
B|---------------------|
G|---------------------|
D|0---0-3--------------|
G|--5-----3p0----------|
D|------------3h5------|



d|-----------------------------------------------|
B|1h3---1----------------1-3---------------------|
G|----------3b-0----0-3b-----3b---0-------0------|
D|---------------3b-0---------------0h3----------|
G|------------------------------------------3b---|
D|-----------------------------------------------|



d|---------------------------------------------|
B|1h3---1----------------1---------------------|
G|0---------3b-0----0-3b-0-0-3p0--------0------|
D|-------------0-3b-0--------------0h3---------|
G|0---------------------------------------3b---|
D|---------------------------------------------|



d|-----------------------------------------------|
B|1h3---1----------------1-3---------------------|
G|0-----0---3b-0----0-3b-----3v---0-------0------|
D|---------------3b-0---------------0h3----------|
G|0-----------------------------------------3b---|
D|-----------------------------------------------|



d|---------------------------------------|
B|1h3---1---------------1-1----------0---|
G|0-----0---3b-0----0-3-0-0-3p0------0---|
D|0------------0-3b-0---0-0----------0---|
G|0------------------------------------0-|
D|---------------------------------------|
_____________________________________________________________________________

Verse

4/4

d|--------------------|-------------------------|
B|1h3---1-------------|---1-3-------------------|
G|0---------3b-0----0-|3b-0---3v----------0-----|
D|-------------0-3b-0-|--------------0h3--------|
G|0-----0---0----0----|0----0-0-------------3b--|
D|--------------------|-------------------------|



d|--------------------|-------------------------|
B|1h3---1-------------|---1---------------------|
G|0---------3b------0-|3b-0-0-3p0---------0-----|
D|---------------3b-0-|--------------0h3--------|
G|0-----0---0----0----|0----0-0-------------3b--|
D|--------------------|-------------------------|



d|--------------------|-------------------------|
B|1h3---1-------------|---1-3-------------------|
G|0---------3b-0----0-|3b-0---3v----------0-----|
D|-------------0-3b-0-|--------------0h3--------|
G|0-----0---0----0----|0----0-0-------------3b--|
D|--------------------|-------------------------|



d|--------------------|-------------------------|
B|1h3---1-------------|---1---------------------|
G|0---------3b------0-|3b-0-0-3p0-----0---------|
D|---------------3b-0-|-------------------------|
G|0-----0---0----0----|0----0-0----------3b--0--|
D|--------------------|-------------------------|

_____________________________________________________________________________

Chorus


d|-----------------|--5---3p0----------|
B|-----------------|----------1--------|
G|5---5---5-3------|0-0---0---0-3b-0---|
D|5---5---5-3------|0------------------|
G|5---5---5-3------|0----------------0-|
D|-----------------|-------------------|



d|-----------------|--/3---3/5---5-5---|
B|-----------------|--/3---3/5---5-5---|
G|5---5---5-3------|0--0---0-----0-0-0-|
D|5---5---5-3------|0----------------0-|
G|5---5---5-3------|0----------------0-|
D|-----------------|-------------------|



d|-----------------|--5---3p0----------|
B|-----------------|----------1--------|
G|5---5---5-3------|0-0---0---0-3b-0---|
D|5---5---5-3------|0------------------|
G|5---5---5-3------|0----------------0-|
D|-----------------|-------------------|


                               
d|-------------------|--------------|
B|1h3---1------------|----------0---|
G|----------3b---0---|----------0---|
D|-------------------|3/5v------0---|
G|-------------------|------------0-|
D|-------------------|--------------|
                               
_____________________________________________________________________________

Bridge

d|--------------------|----------------------|
B|1h3---1-------------|---1-3----------------|
G|0---------3b-0----0-|3b-0---3v------/12v---|
D|-------------0-3b-0-|---------------/12v---|
G|0-----0---0----0----|0----0-0-------/12v---|
D|--------------------|----------------------|
                                   *with slide


d|--------------------|--3h5---3p0----------|
B|1h3---1-------------|------------1--------|
G|0---------3b-0----0-|--0-----0---0-3b-0---|
D|-------------0-3b-0-|---------------------|
G|0-----0---0----0----|0------------------0-|
D|--------------------|---------------------|

_____________________________________________________________________________

Second verse - same as first
_____________________________________________________________________________

Second Chorus 

d|-----------------|--5---3p0----------|
B|-----------------|----------1--------|
G|5---5---5-3------|0-0---0---0-3b-0---|
D|5---5---5-3------|0------------------|
G|5---5---5-3------|0----------------0-|
D|-----------------|-------------------|


d|-----------------|-------------------------|
B|-----------------|-------------------------|
G|5---5---5-3------|0---10/12v---12/15v\---0-|
D|5---5---5-3------|0---10/12v---12/15v\---0-|
G|5---5---5-3------|0---10/12v---12/15v\---0-|
D|-----------------|-------------------------|
                        *     

        
d|-----------------|--5---3p0----------|
B|-----------------|----------1--------|
G|5---5---5-3------|0-0---0---0-3b-0---|
D|5---5---5-3------|0------------------|
G|5---5---5-3------|0----------------0-|
D|-----------------|-------------------|


                               
d|-------------------|--------------|
B|1h3---1------------|----------0---|
G|----------3b---0---|----------0-0-|
D|-------------------|3/5v------0-0-|
G|-------------------|------------0-|
D|-------------------|--------------|

_____________________________________________________________________________     

Second Bridge                         


d|--------------------|----------------------|
B|1h3---1-------------|---1-3----------------|
G|0---------3b-0----0-|3b-0---3v------/12v---|
D|-------------0-3b-0-|---------------/12v---|
G|0-----0---0----0----|0----0-0-------/12v---|
D|--------------------|----------------------|
                                      * 


d|--------------------|----------------------|
B|1h3---1-------------|---1-----------/12v---|
G|0---------3b------0-|3b-0-0-3p0-----/12v---|
D|---------------3b-0-|---------------/12v---|
G|0-----0---0----0----|0----0-0-------/12v---|
D|--------------------|----------------------|
                                      *


d|--------------------|----------------------|
B|1h3---1-------------|---1-3----------------|
G|0---------3b-0----0-|3b-0---3v------/12v---|
D|-------------0-3b-0-|---------------/12v---|
G|0-----0---0----0----|0----0-0-------/12v---|
D|--------------------|----------------------|
                                      * 

d|--------------------|-------------------|
B|1h3---1-------------|---1-----------0---|
G|0---------3b-0----0-|3b-0-0-3p0-----0---|
D|-------------0-3b-0-|---------------0---|
G|0-----0---0----0----|0----0-0-------0---|
D|--------------------|-------------------|
                                    feedback
_____________________________________________________________________________     

Solo

d|-----------------|-------------------|
B|-----------------|-------------------|
G|5---5---5-3----5/|12v----12/15v------|
D|5---5---5-3----5/|12v----12/15v----0-|
G|5---5---5-3----5/|12v----12/15v----0-|
D|-----------------|-----------------0-|
                 * 


d|-----------------------|------------------------------------------------|
B|----------------12\10--|------12\10---------12\10---------12\10---------|
G|5---5---5-3-/12--------|10/12---------10/12---------10/12---------12\---|
D|5---5---5-3------------|------------------------------------------12\---|
G|5---5---5-3------------|------------------------------------------12\---|
D|-----------------------|------------------------------------------------|
              * 


d|-----------------|-----------------------------------------------|
B|-----------------|----12----12-------15-------17-------15--------|
G|5---5---5-3----5/|12-----12----12/15----15/17----17\15----12v\---|
D|5---5---5-3----5/|12---------------------------------------------|
G|5---5---5-3----5/|12---------------------------------------------|
D|-----------------|-----------------------------------------------|
                 * 

d|-------------------|-----------------------|
B|1h3---1------------|-----------------------|
G|0-----0---3v---0---|-----------------------|
D|------0------------|3/5v------5p3p0--------|
G|-------------------|----------------3b-0---|
D|-------------------|-----------------------|
Tap to rate this tab
 
# A B C D E F G H I J K L M N O P Q R S T U V W X Y Z