Song name
# A B C D E F G H I J K L M N O P Q R S T U V W X Y Z

Black Keys - The Only One chords

Highlighted       Show chord diagrams
-------------------------------------------------------------------------------
			     The Only One - The Black Keys
-------------------------------------------------------------------------------
Tabbed by: deVries.Erik
Email: devries.erik@yahoo.com

Tuning: Standard EADGBE

The riff is not 100% correct but it'll give you an idea.

E: X 7 9 9 9 7
F#m: X 9 11 11 10 9

F#m
Can't explain 
E
Nor can I contain
F#m 
Control
E 
You have on my soul 
F#m
It's all I do 
E
Is baby dream of you 
F#m
I'm falling down 
E
When you're around 

F#m
You're the only one 
E
You're the only one 
I'm so wrapped up in your gaze 
Hoping this is just a phase 
But when all is said and done 
I know you are still the one 
You're the only one 
You're the only one 
Cupids bow has stung 
Now you're the only one 

Mystery 
Is what this is to me 
I'm Giving up 
I'm having no luck 
Like a ghost 
The one that I love most 
She disappears
When I get near 

You're the only one 
You're the only one 
I'm so wrapped up in your gaze 
Hoping this is just a phase 
But when all is said and done 
I know you are still the one 
You're the only one 
You're the only one 
Cupids bow has stung 
Now you're the only one

Riff 1.
e|---------------------------------------------------------------------------|
B|---------------------------------------------------------------------------|
G|---------------------------------------------------------------------------|
D|---11--11-11--9------9----11--11-11--9------9------------------------------|
A|-----------------11---------------------11---------------------------------|
E|---------------------------------------------------------------------------|

e|---------------------------------------------------------------------------|
B|---------------------------------------------------------------------------|
G|---------------------------------------------------------------------------|
D|---6--6--6-6-------------6--6--6-6-----6--9--------------------------------|
A|--------------9--7--9---------------9--------------------------------------|
E|---------------------------------------------------------------------------|



************************************

| /   slide up
| \   slide down
| h   hammer-on
| p   pull-off
| ~   vibrato
| +   harmonic
| x   Mute note
| b   Bend
| pb  Pre-bend
| br  Bend release
| pbr Pre-bend release
| brb Bend release bend

************************************
Tap to rate this tab
 
# A B C D E F G H I J K L M N O P Q R S T U V W X Y Z