Song name
# A B C D E F G H I J K L M N O P Q R S T U V W X Y Z

Black Keys - Ill Be Your Man tab

----------------------------------------------------------------
		Iíll Be Your Man (itunes Session) - The Black Keys
----------------------------------------------------------------
Tabbed by: sbrita
Email: steven.brita@gmail.com

Tuning: normal

Intro:
e|------5---5---5---7--7--7----9-----10-----12---5---------------|
B|------------------------------------------------5--------------|
G|--4-/6--6---6--6/7--7--7--7/9--9/11---11/12--------5h7p5-------|
D|---------------------------------------------------------------|
A|---------------------------------------------------------------|
E|---------------------------------------------------------------|

Main chords used throughout: key is to get the strumming pattern correct.  The A chord 
also be played on the 2nd fret if you prefer but I find its easier to do the turn around 
on the 5th fret.

	A chord		F#m chord
e|---------------------------------------------------------------|
B|---------------------------------------------------------------|
G|----------6----------2-2-2-2-----------------------------------|
D|----------7----------4-4-4-4-----------------------------------|
A|----------7----------4-4-4-4-----------------------------------|
E|------5-5----------2-------------------------------------------|

Turn-around - repeat and start again with main chords
	Dm chord	Em Chord
e|---------------------------------------------------------------|
B|---------------------------------------------------------------|
G|---------7------9-9--------------------------------------------|
D|---------7------9-9--------------------------------------------|
A|-----5-5------/7-----------------------------------------------|
E|---------------------------------------------------------------|

************************************

| /   slide up
| \   slide down
| h   hammer-on
| p   pull-off
| ~   vibrato
| +   harmonic
| x   Mute note
| b   Bend
| pb  Pre-bend
| br  Bend release
| pbr Pre-bend release
| brb Bend release bend

************************************
Tap to rate this tab
 
# A B C D E F G H I J K L M N O P Q R S T U V W X Y Z