Black Keys - Nerver Gonna Give You Up tab

Song: Never gonna give you up
Artist: The black Keys
Tabbed by: SanderZ
Intro
e|-5-/-7---5--7--------------------------------------------------------------|
B|------------------7----5-/-7---5---7---5---7---10--------------------------|
G|-2-/-4---2--4--------------------------------------------------------------|
D|------------------4----2-/-4---2---4---2---4----7--------------------------|
A|---------------------------------------------------------------------------|
E|---------------------------------------------------------------------------|

Chorus
e|----------------------------------------------------------------------------|
B|---8----------------10------------------------------------------------------|
G|-----strum -6x--------strum-4x------------------------4x--------------------|
D|---5----------------7-------------------------------------------------------|
A|----------------------------------------------------------------------------|
E|----------------------------------------------------------------------------|

Verse

e|--7---------5--------2---------2-------------------------------------------|
B|--8---------5--------2---------3-------------------------------------------|
G|--9-2-x-----6-2x-----2-2x------4-2x----------------------------------------|
D|--9---------7--------4---------4-------------------------------------------|
A|--7---------7--------4---------2-------------------------------------------|
E|------------5--------2-----------------------------------------------------|

Chorus
e|-------------------------------------------|--------0----------0------------|
B|---8----------------10---------------------|--------1----------2------------|
G|-----strum -6x--------strum -4x------------|-4x-----0----------2------------|
D|---5----------------7----------------------|--------2----------2------------|
A|-------------------------------------------|--------3----------0------------|
E|-------------------------------------------|--------x----------x------------|

Verse

e|--7---------5--------2---------2-------------------------------------------|
B|--8---------5--------2---------3-------------------------------------------|
G|--9-2-x-----6-2x-----2-2x------4-2x----------------------------------------|
D|--9---------7--------4---------4-------------------------------------------|
A|--7---------7--------4---------2-------------------------------------------|
E|------------5--------2-----------------------------------------------------|

Bridge

e|-5-/-7---5--7--------------------------------------------------------------|
B|------------------7----5-/-7---5---7---5---7---10--------------------------|
G|-2-/-4---2--4--------------------------------------------------------------|
D|------------------4----2-/-4---2---4---2---4----7--------------------------|
A|---------------------------------------------------------------------------|
E|---------------------------------------------------------------------------|

Verse

e|--7---------5--------2---------2-------------------------------------------|
B|--8---------5--------2---------3-------------------------------------------|
G|--9-2-x-----6-2x-----2-2x------4-2x----------------------------------------|
D|--9---------7--------4---------4-------------------------------------------|
A|--7---------7--------4---------2-------------------------------------------|
E|------------5--------2-----------------------------------------------------|

Chorus
e|-------------------------------------------|--------0----------0------------|
B|---8----------------10---------------------|--------1----------2------------|
G|-----strum -6x--------strum -4x------------|-4x-----0----------2------------|
D|---5----------------7----------------------|--------2----------2------------|
A|-------------------------------------------|--------3----------0------------|
E|-------------------------------------------|--------x----------x------------|



Chorus
e|----------------------------------------------------------------------------|
B|---8----------------10------------------------------------------------------|
G|-----strum -6x--------strum-4x------------------------8x--------------------|
D|---5----------------7-------------------------------------------------------|
A|----------------------------------------------------------------------------|
E|----------------------------------------------------------------------------|


Outro
e|-5-/-7---5--7--------------------------------------------------------------|
B|------------------7----5-/-7---5---7---5---7---10--------------------------|
G|-2-/-4---2--4--------------------------------------------------------------|
D|------------------4----2-/-4---2---4---2---4----7--------------------------|
A|---------------------------------------------------------------------------|
E|---------------------------------------------------------------------------|
Tap to rate this tab
 
# A B C D E F G H I J K L M N O P Q R S T U V W X Y Z