Black Keys - My Mind Is Ramblin tab

------------------------------------------------------------------------
		My Mind Is Ramblin’  - The Black Keys
------------------------------------------------------------------------
Tabbed by: Ignigknot
Email: Err

I have also tabbed “Meet Me In The City” by The Black Keys

Tuning: Standard





e|------------------------------------------------------------|
B|---------------------------------7------10/12-10------------|
G|----------------------------------9/6------------9~~--------|
D|---------------7-9/11~~--9-7--------------------------------|
A|-7h9~~~--7/9~-9--------------9/7----------------------------|
E|------------------------------------------------------------|

e|---------------------------------------------------------|
B|---------------------------------------------------------|
G|---9h11-9------------------------------------------------|
D|----------9~~~~~----2/4/2--------------------------------|
A|-------------------------2/4~~~~~~~----------------------|
E|---------------------------------------------------------|

e|---------------------------------------------------------------------|
B|---------------------------------------------------------------------|
G|-----------2/4/2-2~~----------2/4/2-2~~--------4/6~----4~~-----------|
D|-------2--2-----4----0----2--2-----4----0----2------------------2----|
A|---2-4---0------------2-4-0-0~------------2-4----0-0-0-0-0-0-2-4-----|
E|---------------------------------------------------------------------|

e|---------------------------------------------------------------------|
B|--------------------------------5~~-----------5/7~5--5---------------|
G|-2/4---2---2~~~---------4/6~~-----------------------6--6/4-----------|
D|---------4------------2-----------------2-----------------4/2~~-0----|
A|-0-0-0-0-0-0-0-0--2-4---0-0-0-0-0-0-2-4-0-0-0-0-0-0-0------------2-4-|
E|---------------------------------------------------------------------|

e|---------------------------------------------------------------------|
B|---------------------------------------------------------------------|
G|----2/4/2-2~~--------2/4/2-2~~~-------2/4/2--2----------2/4/2-2~~----|
D|-2-2-----4--------2~------4---------2~-----4---------2~2-----4-------|
A|-0------------2-4-0~------------2-4-0~-------0---2-4-0~--------------|
E|---------------------------------------------------------------------|

e|---------------------------------------------------------------------|
B|-----5-5/7-5-5/7-5/7-5-----------------------------------------------|
G|-4/6-------------------6/4-2------------2/4/2-2~---------------------|
D|----------------------------4/2-0----2-2-----4-----------------------|
A|-0-0-0-0-0-0-0-0-0-0-0-0-0-0-0-0-2-4-0-------------------------------|
E|---------------------------------------------------------------------|





e|---------------------------------------------------------------------|
B|---------------------------------------------------------------------|
G|---------------------------------------------------------------------|
D|-----2-4-4-4-4-4-4-4-4-4-4-4-4-4-4-----------------------------------|
A|-2-4-----------------------------------------------------------------|
E|---------------------------------------------------------------------|


You should be able to get the rest of the song.  I will eventually tab the solo also.  I 
have the first one done, and am working on the second.

The other versions are very poor, and I submit this as a thank you to all who have 
tabbed songs for other guitar players.  Rock on.
Tap to rate this tab
 
# A B C D E F G H I J K L M N O P Q R S T U V W X Y Z