Song name
# A B C D E F G H I J K L M N O P Q R S T U V W X Y Z

Black Keys - Tighten Up tab

Main Riff-- All up strokes unless designated
                  (*)                   *
-9--9---9-9--7-7--9--9------------------------------------------|
-10-10--9-9--7-7--9--9------------------------------------------|
-11-11--9-9--7-7--10-10-----------------------------------------|
-11-11--9-9--7-7--9--9------------------------------------------|
-------------9-9--11-11-----------------------------------------|
------------------9--9------------------------------------------|

solo #1
----------------------------------------------------------------|
-7-7-5-7--------5-----------------------------------------------|
--------6-4---6--6p4-2-2h4-2---2-2h4-4-2h4-2--------------------|
---------------------------------------------4-2---4-2----------|
------------------------------------------------------4p2h4-----|
------------------------------------------------------------5-2-|

solo #2
--------------x3-------------------------|
-7-7-5-7-------I-------------------------|
---------6-4---I--(4h)6-6-4/2-4-2--------|
---------------I-----------------4-2-----|
---------------I-------------------------|
---------------I-------------------------|

----------------x2----------5------------------------|
-7-7-5-7-5-------I--7-7-5-7---7---5---------2--------|
----------6-4----I--------------6---6-6-4/2---4-2----|
-----------------I-------------------------------4---|
-----------------I-----------------------------------|
-----------------I-----------------------------------|

---------------------------------|
-7-7-5-7------------- (2) -------|
---------6-4---6-6-4/2--4-2------|
----------------------------4----|
---------------------------------|
---------------------------------|

solo #3 (Same as solo 1, but you can always improv)
------------------------------------------------------------------|
-7-7-5-7--------5-------------------------------------------------|
--------6-4---6---6p4-2-2h4-2---2-2h4-4-2h4-2---------------------|
---------------------------------------------4-2---4-2------------|
-------------------------------------------------------4p2h4------|
------------------------------------------------------------5-2---|

solo #4
----------------x2----------5-------------------------|
-7-7-5-7-5-------I--7-7-5-7-----5---------------------|
----------6-4----I------------6---(4h)6-6-4/2-4-2-----|
-----------------I--------------------------------4-2-|
-----------------I------------------------------------|
-----------------I------------------------------------|

---------------------------------|
-7-7-5-7------------- (2) -------|
---------6-4---6-6-4/2--4-2------|
----------------------------4----|
---------------------------------|
---------------------------------|
Tap to rate this tab
 
# A B C D E F G H I J K L M N O P Q R S T U V W X Y Z