Black Keys - Your Touch tab

-----------------------------------------------------------------------------
			     Your Touch - The Black Keys
-----------------------------------------------------------------------------
Tabbed by: sbrita
Email:

Tuning: standard

As with most Keys songs, Dan plays this with a lot of open strings in open positions so
his sound is large.  He also likes to play on the lower strings to get that bass-y feel.
 So let those open strings play and hold the root chords of A and E as much as possible. 
 I think this is pretty close.

Intro:
e|------------------------------------------------------------------------|
B|-----------------------------------------1------------------------------|
G|-------------------------------2--x-x-x--0---7-7-7-7-5-7-5--------------|
D|-------------------------------2--x-x-x------7-7-7-7-5-7-5--------------|
A|-----------2--0--5-5-5-3-5-3---0--x-x-x------5-5-5-5-5-5-5--------------|
E|--5--3--0---------------------------------------------------------------|

When he sings I believe he simplifies the hand positions a bit!  He hits that 7th fret E
string (C note) with his pinkie with a slight bend.
e|------------------------------------------------------------------------|
B|------------------------------------------------------------------------|
G|------------------------------------------------------------------------|
D|---2-------------7--7------7--------------------------------------------|
A|---0-------3--0--5--5------5--------------------------------------------|
E|-----3--0-------------7(b)---7(b)---------------------------------------|


If you find that is too hard, you can play that D chord in open position like this - but
its doesn’t sound as good, I think.
e|------------------------------------------------------------------------|
B|-----------------3-3-3-3------3-----------------------------------------|
G|-----------------2-2-2-2------2-----------------------------------------|
D|---2-------------0-0-0-0------0-----------------------------------------|
A|---0-------3--0----------3(b)---3(b)------------------------------------|
E|-----3--0---------------------------------------------------------------|



************************************

| /   slide up
| \   slide down
| h   hammer-on
| p   pull-off
| ~   vibrato
| +   harmonic
| x   Mute note
| b   Bend
| pb  Pre-bend
| br  Bend release
| pbr Pre-bend release
| brb Bend release bend

************************************
Tap to rate this tab
 
# A B C D E F G H I J K L M N O P Q R S T U V W X Y Z