Song name
# A B C D E F G H I J K L M N O P Q R S T U V W X Y Z

Black Keys - Give Your Heart Away tab

Tabbed by FutureLlama. I'm sure this is a 100% correct. Those chords are all power 
chords. Just listen to the song for the rhythm. Thanks!




      B    A                           B                         
e|--------------------------------------------------------------|
b|--------------------------------------------------------------|
g|--------------------------------------------------------------|
d|--------------------------------------------------------------|
a|------------7s12-10-------------10-----9s14-14-14-12--12------|
E|--------------------12p10-s7-s10--12----------------14--14----|
          


   

   A B                                                  
e|--------------------------------------------------------------|
b|--------------------------------------------------------------|
g|--------------------------------------------------------------|
d|--------------------------------------------------------------|
a|-----9s14-14-12--12h14p12-------------------------------------|
E|---------------14--------14-----------------------------------|    



     A                B                          A      G G# A
e|------------------------------------------------------------|
b|------------------------------------------------------------|
g|------------------------------------------------------------|
d|------------------------------------------------------------|
a|----7s12p10--10--------9s14-12--12--12s9--------------------|
E|-----------12--12-------------14--14----12-10---------------|
Tap to rate this tab
 
# A B C D E F G H I J K L M N O P Q R S T U V W X Y Z