Black Keys - Never Gonna Give You Up tab

        Intro/Outro:

E--7-5-7-------------5-7-5-7-------------5---|
B--------7-7-5-7-5/7---------7-7-5-7-5/7-----|
G--------------------------------------------|
D--------------------------------------------|
A--------------------------------------------|
E--------------------------------------------|


          Chorus:
---7--------------------9--------|---0----0-------|
---8--x5---------------10-x5-----|---1----2-------|
---9-------------------11--------|---0----2-------|
---------------------------------|---2----2-------|
---------------------------------|---3----0-------|
---------------------------------|---0------------|
   Em                  F#m           C    A

         Verse: Guitar 1
---7------5------2-----2------------------------------|
---8------5------2-----3------------------------------|
---9-x2---6-x2---2-x2--4-x-2--------------------------|
---9------7------4-----4------------------------------|
---7------7------4-----2------------------------------|
----------5------2------------------------------------|

  Em      A     F#m    Bm

        Verse: Guitar 2
--------------------------------|
--------------------------------|
--------------------------------|
--------------------------------|
--------------------------------|
------5-7-10-7-5-2--------------|
Tap to rate this tab
 
# A B C D E F G H I J K L M N O P Q R S T U V W X Y Z