Song name
# A B C D E F G H I J K L M N O P Q R S T U V W X Y Z

Black Keys - Everlasting Light tab

"Everlasting Light"

By: The Black Keys

Tabbed by: ..McLovin..

[Intro]
e|---------------------------------------------------------------|
B|---------------------------------------------------------------|
G|---------------------------------------------------------------|
D|------------------14---14\11------------11--11/14--------------|
A|---------------------------------------------------------------|
E|-12-12-12-12-12-12---12------9-9-9-9-9-9---9-------------------|

e|---------------------------------------------------------------| R
B|--------------------------------------------------------------o| E O
G|---------------------------------------------------------------| P N
D|------------------14---14------------------14---14-------------| E C
A|--------------------------------------------------------------o| A E
E|-12-12-12-12-12-12---12---12-12-12-12-12-12---12---------------| T

[Verse]

 "Let me be your everlasting light"
e|-----------------------------------------------------------------------| 
B|-----------------------------------------------------------------------| 
G|-----------------------------------------------------------------------| 
D|--------------------------------------14---14-----------------14---14--|
A|-----------------------------------------------------------------------| 
E|-12-12-12-12-9-9-9-9-12-12-12-12-12-12---12--12-12-12-12-12-12---12----| 

 "The sun when there is none"
e|-----------------------------------------------------------------------| 
B|-----------------------------------------------------------------------| 
G|-----------------------------------------------------------------------| 
D|--------------------------------------14---14-----------------14---14--| 
A|-----------------------------------------------------------------------| 
E|-12-12-12-12-9-9-9-9-12-12-12-12-12-12---12--12-12-12-12-12-12---12----| 

  "Im a Shepard for you..."
e|-----------------------------------------------------------------------| 
B|-----------------------------------------------------------------------| 
G|-----------------------------------------------------------------------| 
D|-----------------------------------------------------------------------| 
A|-----------------------------------------------------------------------| 
E|-12-12-12-12-9-9-9-9-0h5h7-7-7-7-7-7-7-7-0h5h7-7-7-7-0h5h7-7-9-9-------| 


e|---------------------------------------------------------------| R 
B|--------------------------------------------------------------o| E V
G|---------------------------------------------------------------| P E
D|------------------14---14------------------14---14-------------| E R
A|--------------------------------------------------------------o| A S
E|-12-12-12-12-12-12---12---12-12-12-12-12-12---12---------------| T E

[Bridge]

    "Oh baby, cant you see?"
e|---------------------------------------------------------------| R
B|--------------------------------------------------------------o| E
G|---------------------------------------------------------------| P X3
D|-------------------------------------------14---14-------------| E
A|--------------------------------------------------------------o| A
E|-/14-14-14-14-14-14-14-14-12-12-12-12-12-12---12---------------| T

   "Dark     days are through         They're through"
e|---------------------------------------------------------------|
B|---------------------------------------------------------------|
G|---------------------------------------------------------------|
D|---------------------------------------------------------------|
A|-12~~~-----11~~~----9~~~---------------------------------------|
E|---------------------------------------------------------------|

[Pre Verse]
e|---------------------------------------------------------------| R
B|--------------------------------------------------------------o| E O
G|---------------------------------------------------------------| P N
D|------------------14---14------------------14---14-------------| E C
A|--------------------------------------------------------------o| A E
E|-12-12-12-12-12-12---12---12-12-12-12-12-12---12---------------| T

[Repeat Verse]

[The intro repeats along with other parts as the song ends.]

I'm sure there are some mistakes but this should be pretty darn
close. Please rate and please comment with any suggestions or 
corrections.
Tap to rate this tab
 
# A B C D E F G H I J K L M N O P Q R S T U V W X Y Z