Black Keys - Howlin For You tab

Intro
e|---------3b0---------------3p0--------3b(0)--------------------|
B|------------3h5---------3h5--------------3b(0)-----------------|
G|-------------------------------------------------------2b(0)---|
D|---5-7------------5-7------------5-7-------------5-7-------2-2-|
A|---5-7------------5-7------------5-7-------------5-7-----------|
E|-0-----0--------0-----0--------0-----0---------0-----0---------|

VERSE 
e|---------------0-|
B|---------------0-|
G|---------------0-|
D|-----------------|
A|-(2)-5-7-(2)-----|
E|--0-------0------|
pm....     ....

e|-------------------------|
B|-------------------------|
G|-------------------------|
D|----5-7------------------|
A|--2-5-7-(9--7--5-5--2)---|
E|--0------7--5--3-3--0----|

chorus
e|------------------------------------------------|
B|------------------------------------------------|
G|-----5-7--5-------------------5-5-7-------------|
D|-5-7-5-7--5-----5---------5-7-5-5-7---5-7-5-----|
A|-5-7----------7---7-------5-7---------5-7-5-----|
E|--------------------3b0---------------------3b0-|

e|--------------------------|
B|--------------------------|
G|--------------------------|
D|-------------------5h7-5--|
A|-5-7-7-7-7-7-7-7-7------5-|
E|------0-0-0-0-0-0-0-------|
Tap to rate this tab
 
# A B C D E F G H I J K L M N O P Q R S T U V W X Y Z