Song name
# A B C D E F G H I J K L M N O P Q R S T U V W X Y Z

Black Keys - Run Me Down tab

This work is not completely my own. A tab by James Fisher gave
me a really great start. His tab just needed some corrections and
i thought it might be helpful to get it posted to ultimate-guitar.
Here is the link to the original tab:
http://web.archive.org/web/20050215213405/bktabs.xtracrispy.com/run+me+down.txt

INTRO/START OF VERSE
                      Run  me  down in  the winter...
E  :-------------------------------------------------------------|
B  :---2---1---1--------------2-----8----------------2-----------|
G  :---2---0---0--------------2--/9---9--5h7p5-------2-----------|
D  :-------------------------------------------7-----------------|
A  :0-----3---0------------0----------------------0-----3--------|
E  :-------------3p0~--------------------------------------3-----|

  Run  me  down in the spring...                   ...goddamn thing
E  :-------------------------------------------------------------|
B  :---2-----8----------------2-----------3-----3-----3--3b^-----|
G  :---2--/9---9--5h7p5-------2-----------2-----2-----2--2b^-----|
D  :--------------------7--------------------0-----0-------------|
A  :0-----------0----------*-----3-----0-------------------------|
E  :--------------------------------3----------------------------|

E  :-------------------------------------------------------------|
B  :---2-----8----------------2-----------2-----8----------------|
G  :---2--/9---9--5h7p5-------2-----------2--/9---9--5h7p5-------|
D  :--------------------7----------------------------------7-----|
A  :0----------------------0-----3-----0-------------------------|
E  :--------------------------------3----------------------------|

             Ain't gonna run me down
E  :-------------------------------------------------------------||
B  :---2----------2-2-2---1-1-3b^----2-----8--------------------o||
G  :---2----------2-2-2---2-2-2b^----2--/9---9--5h7p5------------||
D  :--------------------------------------------------7----------||
A  :0-----3-----0-------0---------0-----------------------------o||
E  :---------3---------------------------------------------------||

From there you just repeat various sections of the music as needed.
This is still a little rough so there are mistakes but this should at
least get y'all on the right track. please rate and comment with any
feedback or corrections.
Tap to rate this tab
 
# A B C D E F G H I J K L M N O P Q R S T U V W X Y Z