Black Keys - Next Girl tab

This is a revision to charlyspaceship's tab. His was great,
but after using it to play this song I noticed a few changes
that would have helped.
Once again, thanks goes out to charlyspaseship for the original tab.

Standard tuning.
I like to play Guitar 1's part through a bass with a distortion pedal,
but a flanger or delay pedal might help to get the sound a little closer.

ntro Guitar 1:
e-------------------------------------------------------|
b-------------------------------------------------------|
g-------------1-1-1-1-1-1-1-1---------------------------|
d--------2-4--------------------4-4-4-4-2---------------|
a-----4-------------------------------------------------|
E-------------------------------------------------------|

Pre Verse Gtr. 1
e--------------------------------------------|
b--------------------------------------------|
g--------------------------------------------|
d--------------------------------------------|
a----2-4-4--------------2--------------------|
E---------------------------0-0--------------|
Pre Verse Gtr. 2		                     x2
e-------------------------------------------------|
b-----------5-2---2------------7-5-7-5------------|
g---------------4---------------------------------|
d-------------------------------------------------|
a-------------------------------------------------|
E-------------------------------------------------|

Pre Verse Gtr. 1
e-----------------------------------------------------------------------|
b-----------------------------------------------------------------------|
g-----------------------------------------------------------------------|
d-----------------------------------------------------------------------|
a--2-4-4--------------2-----------------------2-4-4------------2--------|
E------------------------0-0---------------------------------------0-0--|
Pre Verse Gtr. 2
e---------4-2--2-----------------4-2---2------------------------------------------------|
b-------------5--5-------------------5----------5-2---2----------7-5-7-5----------------|
g---------------------------------------------------4------------------------6----------|
d---------------------------------------------------------------------------------------|
a---------------------------------------------------------------------------------------|
E---------------------------------------------------------------------------------------|

Verse: Gtr. 1 only
e-----------------------------------------------------------------------|
b-----------------------------------------------------------------------|
g-----------------------------------------------------------------------|
d-----------------------------------------------------------------------|   x2
a-2-4-4----------------2------------------2-4-4----------------2--------|
E-------------------------0-0--------------------------------------0-0--|
 The look of the cake it ain't, it ain't always the taste. My ex girl she had such a,
such a beautiful face
 I wanted love, But not for myself. But for the girl so she could, so she could love herself

Chorus: Gtr.1
e------------------------------------------------------------------|
b------------------------------------------------------------------|
g------------------------------------------------------------------|    x2
d------2----------------2--------------4-2--2--------2-------------|
a--2-4---4--4------2-4---4--4-----2-4-----------2-4---4--4---------|
E------------------------------------------------------------------|
Chorus: Gtr.2
e--------------------------------------2---------------------------|
b----2-5-2------------2-5-2---------2---5-----------2-5-2----------|
g--4----------------4-------------4---------------4----------------|    x2
d------------------------------------------------------------------|
a------------------------------------------------------------------|
E------------------------------------------------------------------|
Oh my next girl. Will be nothing like my ex girl. I made mistakes back then. I'll never 
do it again
Oh my next girl. She'll be nothing like my ex girl. It was a painful dance. Now I got a 
second chance

Pre Verse Gtr. 1
e--------------------------------------------------------------------------------|
b--------------------------------------------------------------------------------|
g--------------------------------------------------------------------------------|
d--------------------------------------------------------------------------------|
a--2-4-4--------------2--------------------2-4-4------------2--------------------|
E------------------------0-0-----------------------------------0-0---------------|

Verse Gtr. 1
e---------------------------------------------------------------------------------|
b---------------------------------------------------------------------------------|
g---------------------------------------------------------------------------------|
d---------------------------------------------------------------------------------|
a--2-4-4--------------2--------------------2-4-4------------2---------------------|
E------------------------0-0-----------------------------------0-0----------------|
 oh.. A beautiful face and a, And a wicked way. And I'm praying for her Beautiful face, 
every day
   All that work over, over so much time If I- If I think too hard I might lose my mind.

Chorus: Gtr.1
e--------------------------------------------------------------------|
b--------------------------------------------------------------------|
g--------------------------------------------------------------------|    x2
d------2---------------2---------------4-2--2-------2----------------|
a--2-4---4--4------2-4---4--4-----2-4-----------2-4--4--4------------|
E--------------------------------------------------------------------|
Chorus: Gtr.2
e--------------------------------------2---------------------------|
b----2-5-2------------2-5-2---------2---5-----------2-5-2----------|
g--4----------------4-------------4---------------4----------------|    x2
d------------------------------------------------------------------|
a------------------------------------------------------------------|
E------------------------------------------------------------------|
Oh my next girl. Will be nothing like my ex girl. I made mistakes back then. I'll never 
do it again
With my next girl. She'll be nothing like my ex girl. It was a painful dance. And I, I
got a second chance

Breakdown
e-----------------------------------------------|
b-----------------------------------------------|
g---------1-1-1-1-1-1-1-1-----------------------|
d-----2-4-----------------4-4-4-4-4-4-2-------2-|
a-4-4--------------------------------------2-4--|
E-----------------------------------------------|

----------------------------------------------------|
----------------------------------------------------|
------------------------1-1-1-1-1-1-1-1-------------|
-----------2--------2-4-----------------4-4-4-4-----|
-4-4----2-4---4-4-4------------------------------2--|
----------------------------------------------------|


Outro Gtr. 1
e------------------------------------------|
b------------------------------------------|
g------------------------------------------|
d------------------------------------------|
a----2-4-4--------------2------------------|
E-------------------------0-0--------------|
Outro Gtr. 2						                            x2
e--------------------------------------------|
b-------------2-5-2------------7-5-7-5-------|
g-----------4--------------------------------|
d--------------------------------------------|
a--------------------------------------------|
E--------------------------------------------|

Outro Gtr. 1
e-------------------------------------------------------------------------------------|
b-------------------------------------------------------------------------------------|
g-------------------------------------------------------------------------------------|
d-------------------------------------------------------------------------------------|
a--2-4-4--------------2-----------------------2-4-4------------2----------------------|
E-----------------------0-0---------------------------------------0-0-----------------|
Outro Gtr. 2
e---------4--2---2--------------4--2----2-------|
b--------------5---5-----------------5----------|
g-----------------------------------------------|
d-----------------------------------------------|
a-----------------------------------------------|
E-----------------------------------------------|

----------------------2----------------------------|
---2-5-2---------------5--2sustain/bend-----2bend--|
-4-----------------------4----------------4--------|
---------------------------------------------------|
---------------------------------------------------|
---------------------------------------------------|
Tap to rate this tab
 
# A B C D E F G H I J K L M N O P Q R S T U V W X Y Z