Song name
# A B C D E F G H I J K L M N O P Q R S T U V W X Y Z

Black Keys - Goodbye Babylon tab

GOODBYE BABYLON

By: The Black Keys

Tabbed by Ink-You-Bus

July 1, 2011


INTRO x1

e|--------------------------------------------------------------------------|
B|-----------6--------------------------------------------------------------|
G|-----0-s7----5h7--3h5--3--------555s7-----555--7--------------------------|
D|----------------------------555------8--5-----8-8-------------------------|
A|--------------------------------------------------------------------------|
E|--------------------------------------------------------------------------|

MAIN RIFF x3

e|--------------------x3----------------------------------------------------|
B|--------------------x3----------------------------------------------------|
G|--------------------x3----------------------------------------------------|
D|---------3----------------------------------------------------------------|
A|-----3h5---3h5-3h5-----333s5----333--5------------------------------------|
E|---3---------------6--------6--3----6-6-----------------------------------|



RIFF OUTROx1

e|--------------------x3----------------------------------------------------|
B|--------------------x3----------------------------------------------------|
G|--------------------x3----------5b6.5-------------------------------------|
D|---------3----------------------------------------------------------------|
A|-----3h5---3h5-3h5-----333s5----------------------------------------------|
E|---3---------------6--------6--3------------------------------------------|



VERSE x4
            |Here he throws in some cool fills that change every time|
   [Gmin]   |                [A#]    [C]     |Fills here too|
e|-----3--x-------------------6--x--6s8---8---------------------------------|
B|-----3--x-------------------6--x--6s8---8---------------------------------|
G|-----3--x--3h5-3------------7--x--7s9---9---------------------------------|
D|-----5--x-------5--3s5------8--x--8s10--10--------------------------------|
A|----------------------------------8s10--10------8h10----------------------|
E|---3----------------------6-------6s8---8---8h10--------------------------|

The VERSE could also be played like this for different fill techniques

                                     [etc.]
e|-----3--x----------------------x------------------------------------------|
B|-----3--x-------------------3--x--3s5-------------------------------------|
G|-----3--x--3h5-3------------3--x--3s5-------------------------------------|
D|-----5--x-------5--3s5------3--x--3s5-------------------------------------|
A|--------------------------------------------------------------------------|
E|---3----------------------------------------------------------------------|


CHORUS x4

                                               *Nat Harmonics
e|----1--1--1--1--1--1--1--1--1--1--1s3--3--3-------*12------------------------|
B|----1--1--1--1--1--1--1--1--1--1--1s3--3--3-------*12------------------------|
G|----2--2--2--2--2--2--2--2--2--2--2s3--3--3-------*12------------------------|
D|----3--3--3--3--3--3--3--3--3--3--3s5--5--5-------*12------------------------|
A|----3--3--3--3--3--3--3--3--3--3--3s5-----5-------*12------------------------|
E|----1--1--1--1--1--1--1--1--1--1--1s3-----3-------*12------------------------|


SONG OUTRO (This is simply the verse played softer and crammed with badass fills - I 
tried filling in
            a couple as best I could)

The fills are all in G and should switch back into the verse cleanly, best if you play 
with your thumb

e|-----3--x-------------------6--x--6s8---8---------------------------------|
B|-----3--x-------------------6--x--6s8---8---------------------------------|
G|-----3--x--3h5-3------------7--x--7s9---9---------------------------------|
D|-----5--x-------5--3s5------8--x--8s10--10-----------8~-------------------|
A|----------------------------------8s10--10-------8h10---------------------|
E|---3----------------------6-------6s8---8---8s6h8-------------------------|



e|-----3--x-------------------6--x--6s8---8------6--------------------------|
B|-----3--x-------------------6--x--6s8---8------6h8------------------------|
G|-----3--x--3h5-3------------7--x--7s9---9---------5h7s3-------------------|
D|-----5--x-------5--3s5------8--x--8s10--10--------------------------------|
A|----------------------------------8s10--10--------------------------------|
E|---3----------------------6-------6s8---8---------------------------------|



e|-----3--x-------------------6--x--6s8---8---------------------------------|
B|-----3--x-------------------6--x--6s8---8--------6hp6---------------------|
G|-----3--x--3h5-3------------7--x--7s9---9------s7----7s5------------------|
D|-----5--x-------5--3s5------8--x--8s10--10--------------------------------|
A|----------------------------------8s10--10--------------------------------|
E|---3----------------------6-------6s8---8---------------------------------|

Please send any comments or changes to keith_hannah18@hotmail.com

Thank you

PS anyone who can contribute fills is encouraged to do so
Tap to rate this tab
 
# A B C D E F G H I J K L M N O P Q R S T U V W X Y Z