Song name
# A B C D E F G H I J K L M N O P Q R S T U V W X Y Z

Black Keys - Lonely Boy tab

Intro

---------------------------|
---------------------------|
---------------------------|
---------------------------|       X4
---------------------------|
---------------------------|
2-2-2-2-5-2-2-2-2-0--------|


------------------------------------|
------------------------------------|
------------------------------------|    X2
------------------------------------|
------------------------------------|
2-2-2-2-2-2-2-2-5-5-5-5-5-5-5-5-----|

Verse
------------------------------|
------------------------------|
9-9-9-9-------9-9-9-9---------|       X2
7-7-7-7-------7-7-7-7---------|
--------7-8-7--------7-8-7----|
------------------------------|


------------------------------------|
------------------------------------|     Not sure on this part
9-9-9-9------7-7-7-7--14-14-14------|
7-7-7-7------5-5-5-5--12-12-12------|
------------------------------------|
------------------------------------|

Chorus
--------------------------------|
--------------------------------|
--------------------------------|
2-2-2-2-2-2-2-2-5-5-5-5-7-7-7-7-|
0-0-0-0-0-0-0-0-3-3-3-3-5-5-5-5-|
0-0-0-0-0-0-0-0-3-3-3-3-5-5-5-5-|
Tap to rate this tab
# A B C D E F G H I J K L M N O P Q R S T U V W X Y Z