Song name
# A B C D E F G H I J K L M N O P Q R S T U V W X Y Z

Black Keys - Hurt Like Mine tab

#----------------------------------PLEASE NOTE---------------------------------#
#This file is the author's own work and represents their interpretation of the #
#song. You may only use this file for private study, scholarship, or research. #
#------------------------------------------------------------------------------##

                                 Hurt Like Mine
                          As recorded by The Black Keys
                      (From the 2003 Album THICKFREAKNESS)

Transcribed by Ian Hafkenschiel

Gtr I (E A D G B E)

  Q=90
  Gtr I
  W          q  S S E E S S +Q
|----------|---------------------|
|----------|---------------------|
|----------|----2-2-2-2-0h1-(1)--|
|----------|---------------------|
|----------|---------------------|
|----------|-0-------------------|


                      ~
  E  E  E S E E S E a E   E  E  E S E E S E a S.  +T
|----0--------0---------|----0--------0---------------|
|----0--------0---------|----0--------0---------------|
|-------2-0h1-----------|-------2-0h1-----------------|
|---------------0---0h2-|---------------0---0h2b3r(2)-|
|-----------------2-----|-----------------2-----------|
|-0-(0)-----------------|-0-(0)-----------------------|


                      ~
  E  E  E S E E S E a E   E  E  E S E E S E E
|----0--------0---------|----0--------0-------|
|----0--------0---------|----0--------0-------|
|-------2-0h1-----------|-------2-0h1---------|
|---------------0---0h2-|---------------0-----|
|-----------------2-----|-----------------2---|
|-0-(0)-----------------|-0-(0)-------------3-|


   Q    q   +Q   Q     E  E  e  E Q  Q
|-------3-----------|--------3----------|
|-------2-----------|--------2----------|
|-------2-----------|--------2----------|
|-(2)---------------|-(2)---------------|
|--0---(0)--(0)-----|--0--0-(0)-0-0-----|
|----------------3--|----------------3--|


                      ~                       ~
  E  E  E S E E S E a E   E  E  E S E E S E a E
|----0--------0---------|----0--------0---------|
|----0--------0---------|----0--------0---------|
|-------2-0h1-----------|-------2-0h1-----------|
|---------------0---0h2-|---------------0---0h2-|
|-----------------2-----|-----------------2-----|
|-0-(0)-----------------|-0-(0)-----------------|


                      ~                       ~
  E  E  E S E E S E a E   E  E  E S E E S E a E
|----0--------0---------|----0--------0---------|
|----0--------0---------|----0--------0---------|
|-------2-0h1-----------|-------2-0h1-----------|
|---------------0---0h2-|---------------0---0h2-|
|-----------------2-----|-----------------2-----|
|-0-(0)-----------------|-0-(0)-----------------|


   Q    H.         Q    H.
|-------2-------|-------3-----|
|-------0-------|-------2-----|
|-------2-------|-------2-----|
|-(1)-----------|-(2)---------|
|--2---(2)------|--0---(0)----|
|---------------|-------------|
Tap to rate this tab
# A B C D E F G H I J K L M N O P Q R S T U V W X Y Z