Song name
# A B C D E F G H I J K L M N O P Q R S T U V W X Y Z

Black Keys - Stop Stop tab

----------------------------------------------------------------------------
			     Stop Stop - The Black Keys
----------------------------------------------------------------------------Tabbed by:Notnatsnhoj
Email:lf82@comcast.net

Tuning:EADGBE

Intro:
e|-------------------------------------------3---6---3-----|
B|-----4-6--4h6-6-6p4-------4-6--4h6-6-6p4---5---8---5-----|
G|--5-----------------5--5-----------------5-5---8---5-----|
D|-------------------------------------------5---8---5-----|
A|-------------------------------------------3---6---3-----|
E|-------------------------------------------3---6---3-----|

Riff:
e|---------------------------------------------------------|
B|--------4h6p4-6/8-6\4-6-4---------4h6p4-6/8-6\4-6-4------|
G|--3h5-5---------------------3h5-5-------------------5\3--|
D|---------------------------------------------------------|
A|---------------------------------------------------------|
E|---------------------------------------------------------|

e|---------------------------------------------------------|
B|--------4h6p4-6/8-6\4-6-4---------6/8-6\4----------------|
G|--3h5-5--------------------3h5------------3h5------------|
D|---------------------------------------------------------|
A|---------------------------------------------------------|
E|---------------------------------------------------------|

LYRICS:
C CHORD THE WHOLE TIME!
You're wound up like a weapon
You've got an evil streak
They told me to stay away
But I was much too weak


CHORUS:
C	     A#	   F		  C
Ya you gotta Stop, Stop can't you hear me call
             A#    F       C
and singing, stop  stop it girl
C	     A#    F		  C
Ya you gotta Stop, stop can't you see me fall
             A#    F       C
and singing, stop  stop it girl


C CHORD THE WHOLE TIME!
I hounded you forever
But you never saw
This love was so strong it shoulda
Been against the law


(CHORUS)

(SOLO)


C CHORD THE WHOLE TIME!
You tear me all apart
and then act so warm
like being cooled by the rain
in the eye of the storm


(CHORUS X2)


Sorry I don't know the solo, but this is my first tab so I hope the rest is right.
************************************

| /   slide up
| \   slide down
| h   hammer-on
| p   pull-off
| ~   vibrato
| +   harmonic
| x   Mute note
| b   Bend
| pb  Pre-bend
| br  Bend release
| pbr Pre-bend release
| brb Bend release bend

************************************
Tap to rate this tab
 
# A B C D E F G H I J K L M N O P Q R S T U V W X Y Z