Song name
# A B C D E F G H I J K L M N O P Q R S T U V W X Y Z

Black Keys - Nova Baby tab

-------------------------------------------------------------------------------
			     Nova Baby - The Black Keys
-------------------------------------------------------------------------------
Tabbed by:lfgtimmer

Tuning:standard

Chords used:

   G    Em   Bm   B    C    A

e|-x----7----7----7----8----5--------------------------------------------------|
B|-10---8----7----7----8----5--------------------------------------------------|
G|-10---9----7----8----9----6--------------------------------------------------|
D|-10---9----9----9----10---7--------------------------------------------------|
A|-8----7----9----9----10---7--------------------------------------------------|
E|-x----x----7----7----8----5--------------------------------------------------|

Listen to the song for the timing.

Intro:
G Em x3 B C x2
Em Bm x3 A A

Verse:
Em Bm x3 A A
Em Bm x3 A A

you walk around in other town
i've seen you out just hangin around
its what you choose and i suppose
you'll meet me one day
meet me one day
you throw away every other dream
taking over baby to the dollar machine
that party dress is such a mess
you'll need me one day
need me one day
soon....

Chorus:
G Em x3 B C
all your enemies
smile when you fall
take it coz you
dont know what you want
dont know what you want
oh... this love of mine
all my precious time
you've waste it coz you
dont know what you want

Verse:
Em Bm x3 A A
Em Bm x3 A A

there goes the kids that have a mask
elevator ladies in the parking lot
you saw it all and id recall
the dream you told me
dream you told me
this empty heart you left me with
that we belong, my parting gift
im falling hard for every odd
of the dream you sold me
dream you sold me

Chorus:
G Em x3 B C

all your enemies
smile when you fall
take it coz you
dont know what you want
dont know what you want
oh... this love of mine
all my precious time
you've waste it coz you
dont know what you want
dont know what you want

Solo:
e|--12--14--12/14--12--10--------------------10------------------------------|
B|------------------------12-12--12--10--12------12--10----------------------|
G|-------------------------------------------------------12------------------|
D|---------------------------------------------------------------------------|
A|---------------------------------------------------------------------------|
E|---------------------------------------------------------------------------|

e|--12--14--12/14--12--10--------------------10------------------------------|
B|------------------------12-12--12--10--12------12-12-12--------------------|
G|---------------------------------------------------------------------------|
D|---------------------------------------------------------------------------|
A|---------------------------------------------------------------------------|
E|---------------------------------------------------------------------------|

e|--12--14--12/14--12--10--------------------10--------------------------------|
B|------------------------12-12--12--10--12------12--10------------------------|
G|-------------------------------------------------------12--------------------|
D|-----------------------------------------------------------------------------|
A|-----------------------------------------------------------------------------|
E|-----------------------------------------------------------------------------|

e|--18b19p15-----------------------------------------------------------------|
B|------------17--15--17--15----------15~------------------------------------|
G|----------------------------16--14-----------------------------------------|
D|---------------------------------------------------------------------------|
A|---------------------------------------------------------------------------|
E|---------------------------------------------------------------------------|

e|--18b19p15-----------------------------------------------------------------|
B|------------17--15--17--15----------15~------------------------------------|
G|----------------------------16--14-----------------------------------------|
D|---------------------------------------------------------------------------|
A|---------------------------------------------------------------------------|
E|---------------------------------------------------------------------------|

Outro:
Play the chords of the chorus
Tap to rate this tab
# A B C D E F G H I J K L M N O P Q R S T U V W X Y Z